» » »

Bonus Moshpit Bass tabs (ver.1)

Artists:  A B C D E F G H I J K L M N O P Q R S T U V W X Y Z # 

Bonus Moshpit Bass tabs (ver.1)

Taking Back Sunday
Rating:
0/5 (0 votes)

Hard to play? Try these video lessons and learn fast.
                (PartTwo)
Taking Back Sunday
Bonus Moshpit pt 2
Live on Fuse IMX
tuned GDAE



intro
-------------------------------------
-------------------------------------
-------------------------------------
7\0--5070--x-x-x-x-7\0--50-7-x-x-x-x-



verse x 3
-------------------------------------
-------------------------------------
---5------7--------------------------
-3---3--5---5---7\0-x-x-x-x----------



verse ending
-------------------------------------
-------------------------------------
---5------7-------35/----------------
-3---3--5---5-7777-------------------



chorus x 4
-------------------------------------
-------------------------------------
-----------222x-22020----------------
-333x-555x-----------3---------------


verse x3
verse ending x1
chorus x4


"my keys to the castle..." x2
-------------------------------------
-------------------------------------
222x-222x-222x-222x-------------------
--------------------333x-333x-333x-333x-



slow mumbled bridge "no way out" x6
-------------------------------------
-------------------------------------
-2~----------------------------------
----5~-0--23~------------------------



adam screaming x3
---------------------------------------------------
--------------------------------------555555555555-
--------------222222222222555555555555-------------
-2-33333333333-------------------------------------



ending x 1
-------------2222222222225555555555555------000x222x222x---000x22020---
-333333333333---------------------------333x------------33x---------3\-
            
Hard to play? Try these video lessons and learn fast. | Correct




comments powered by Disqus
↑ Back to top | Tablatures and chords are parodies/interpretations of the original songs. You may use it for private study, scholarship, research or language learning purposes only