>
 >
Evil Eye

Evil Eye Guitar Tabs

Takida - Evil Eye chords, tabs, tablatures, lyrics

Guitar lessons | Add/correct | Request | Top 50 tabs Artists:  A B C D E F G H I J K L M N O P Q R S T U V W X Y Z 0-9

Evil Eye Guitar Tabs – Takida

CD, Sheet music, Poster

Do you like Evil Eye? Share with your friends now
Tabs
-------------------------------------------------------------------------------
-------------------------------------------------------------------------------

Tuning: Drop-D (DADGBe)

Sorry about the messy layout...

Chords:
   C  G  D# F  A#
e|---------------------------------------------------------------------------|
B|---------------------------------------------------------------------------|
G|-5-------------------------------------------------------------------------|
D|-5--5--1--3--8-------------------------------------------------------------|
A|-3--5--1--3--8-------------------------------------------------------------|
D|----5--1--3--8-------------------------------------------------------------|

Verse:
e|-------------|
B|-----------6-|
G|-7-5---7-5---|
D|-------------| 
A|-------------|
D|-------------|  X12

Intro:

C G D# F C G
        D#            F
You say I got nothing help me just one more time


Verse:
C G F G
C
The same old lies when you're talking to me,
G                             F
and your disguise transparent for my eyes,
                        G
it's been a while but I can recognize it,
the dark is in your mind

C                           G
On and on, it's haunting you,
                                 F
you can't escape, you mean to be true,
                         G
it doesn't mind, you are down with it


Chorus:
C G
        D#            F                     C    G
You say I got nothing help me just one more time
            D#
But I don't have a reason,
F
don't wanna change my mind


Verse:
C G F G
C                         G
Evil eye, it's nothing new, you're victimized
         F
He's got you, well alright,
           G
it doesn't matter where you are he will be there
C                    G
On line, and now I'm sad, now I'm sad,
                  F                     G
I don't wanna help you realize it's taken over you
and now it's breaking


Chorus:
C G
        D#            F                     C    G
You say I got nothing help me just one more time
            D#
But I don't have a reason,
F                     C
don't wanna change my mind
G       D#            F
You say I got nothing help me just one more time..


Stick:
e|---------------------------|---------------------------|
B|---------4-----------1-----|---------4-----------1-----|
G|---5---5---5---5---------5-|---5---5---5---5---------5-|
D|-----------------5-1---3---|-----------------5-1---3---|
A|-3---3-------3-------------|-3---3-------3-------------|
D|------------------(1---3)--|------------------(1---3)--|

e|-----------------------------|-----------------------------|
B|-------4---------------------|-------4---------------------|
G|---5-----5---5---------------|---5-----5---5---------------|
D|---------------5-3-5-3-3-5-3-|---------------5-3-5-3-3-5-3-|
A|-3---3-----3-----3-5-3-3-5-3-|-3---3-----3-----3-5-3-3-5-3-|
D|-----------------3-5-----5-3-|-----------------3-5-----5-3-|

e|-----------------------------|-----------------------------|
B|-------4---------------------|-------4---------------------|
G|---5-----5---5---------------|---5-----5---5---------------|
D|---------------5-3-5-3-3-5-3-|---------------5-3-5-3-3-5-3-|
A|-3---3-----3-----3-5-3-3-5-3-|-3---3-----3-----3-5-3-3-5-3-|
D|-----------------3-5-----5-3-|-----------------3-5-----5-3-|

e|-------------------------------------|-------------------------------------|
B|-------------------------------------|-------------------------------------|
G|-5---------------5-------------------|-5---------------5-------------------|
D|-------------------------3-5-3-3-5-3-|-------------------------3-5-3-3-5-3-|
A|---3-3-3-3-3-3-3---3-3-3-3-5-3-3-5-3-|---3-3-3-3-3-3-3---3-3-3-3-5-3-3-5-3-|
D|-------------------------3-5-----5-3-|-------------------------3-5-----5-3-|
                                                                Yeeeah

e|-------------------------------------|-------------------------------------|
B|-------------------------------------|-------------------------------------|
G|-5---------------5-------------------|-5---------------5-------------------|
D|-------------------------3-5-3-3-5-3-|-------------------------3-5-3-3-5-3-|
A|---3-3-3-3-3-3-3---3-3-3-3-5-3-3-5-3-|---3-3-3-3-3-3-3---3-3-3-3-5-3-3-5-3-|
D|-------------------------3-5-----5-3-|-------------------------3-5-----5-3-|

e|-----------------------------|----------------------------------|
B|---------3-------6-4-3---3-5-|----------------------------------|
G|-----5-----5---5-------5-----|----------------------------------|
D|---5---5-----5---------------|-----6---8-6---6-----8---10-8---8-|
A|-3---------------------------|---6---6-----6-----8---8------8---|
D|-----------------------------|-6---------------8----------------|

e|-----------------------------|----------------------------------|
B|---------3-------6-4-3---3-5-|----------------------------------|
G|-----5-----5---5-------5-----|----------------------------------|
D|---5---5-----5---------------|-----6---8-6---6-----8---10-8---8-|
A|-3---------------------------|---6---6-----6-----8---8------8---|
D|-----------------------------|-6---------------8----------------|

  C                              G#              A#
e|-----------------------------|----------------------------------|
B|---------3-------6-4-3---3-5-|----------------------------------|
G|-----5-----5---5-------5-----|----------------------------------|
D|---5---5-----5---------------|-----6---8-6---6-----8---10-8---8-|
A|-3---------------------------|---6---6-----6-----8---8------8---|
D|-----------------------------|-6---------------8----------------|
  C                              G#              A#
e|-----------------------------|----------------------------------|
B|---------3-------6-4-3---3-5-|----------------------------------|
G|-----5-----5---5-------5-----|----------------------------------|
D|---5---5-----5---------------|-----6---8-6---6-----8---10-8---8-|
A|-3---------------------------|---6---6-----6-----8---8------8---|
D|-----------------------------|-6---------------8----------------|


Chorus:
C G
        D#            F                     C    G
You say I got nothing help me just one more time
            D#
But I don't have a reason,
F
don't wanna change my mind

C G
        D#            F                     C    G
You say I got nothing help me just one more time
            D#
But I don't have a reason,
F                     C
don't wanna change my mind


Outro:
e|-----------------------------|-----------------------------|
B|-------4---------------------|-------4---------------------|
G|---5-----5---5---------------|---5-----5---5---------------|
D|---------------5-3-5-3-3-5-3-|---------------5-3-5-3-3-5-3-|
A|-3---3-----3-----3-5-3-3-5-3-|-3---3-----3-----3-5-3-3-5-3-|
D|-----------------3-5-----5-3-|-----------------3-5-----5-3-|

e|-------------|-------------|-----------|
B|-------------|-------------|-----------|
G|-------------|-------------|-5---5-5-5-|
D|-3-5-3-3-5-3-|-3-5-3-3-5-3-|-----5-5-5-|
A|-3-5-3-3-5-3-|-3-5-3-3-5-3-|---3-3-3-3-|
D|-3-5-----5-3-|-3-5-----5-3-|-----------|





Comments


Popular Takida tabs & chords
As You Die Intro Tabs
Close Therapy Tabs
Give Into Me 1 Tabs
Killed By Train Intro Tabs
Killed By Train Intro 2 Tabs
Old Tabs
The Things That We Owe Intro 2 Tabs
What Doesnt Kill You Tabs
Asleep Ukulele
Swallow Until Youre Gone Ukulele


Song lyrics



↑ Back to top | Tablatures and chords are parodies/interpretations of the original songs. You may use it for private study, scholarship, research or language learning purposes only
© 2014 AZChords.com Contact us | Privacy policy | DMCA | Add/correct tabs | Request tabs | Top 50 tabs