>
 >
Burning Inside

Burning Inside Guitar Tabs

Takida - Burning Inside chords, tabs, tablatures, lyrics

Guitar lessons | Add/correct | Request | Top 50 tabs Artists:  A B C D E F G H I J K L M N O P Q R S T U V W X Y Z 0-9

Burning Inside Guitar Tabs – Takida

CD, Sheet music, Poster

Do you like Burning Inside? Share with your friends now
Tabs
-------------------------------------------------------------------------------
-------------------------------------------------------------------------------

The lead guitar is not 100% accurate during the choruses (especielly not the last 
but it's the best I could be bothered figuring out, please feel free to tab it yourself and 
it too me!

Tuning: Standard (EADGBe)

Verse figures:
Figure 1:
e|--------------------------------|
B|--------------------------------|
G|-9h12-9--9h12----9h12-9-10p9----|
D|--------------12-------------12-|
A|--------------------------------|
E|--------------------------------|

Figure 2:
e|-----------------------------------------|
B|-----------------------------------------|
G|-9h12-9--9h12----9h12----9h12-9-10p9-----|
D|--------------12------10-------------12--|
A|-----------------------------------------|
E|-----------------------------------------|

Figure 3:
e|-12-10----------10-12-10-------------|
B|-------13-12-13----------13-12-13----|
G|----------------------------------12-|
D|-------------------------------------|
A|-------------------------------------|
E|-------------------------------------|


Chorus figures:
Figure 4:
e|------------------------------------------------------------|
B|------------------------------------------------------------|
G|-12-9---12------12--------------12-9---12------12---------9-|
D|-----------12------10---10-12-------------12------10---10---|
A|------------------------------------------------------------|
E|------------------------------------------------------------|

Figure 5:
e|---------------------------------------------------------------------------|
B|---------------------------------------------------------------------------|
G|12-9-9-12-9-9-12-9-12-----12-----12--12-----12-----12--12-----12-----12--9-|
D|---------------------12-12--12-12--12--10-10--10-10--10--12-12--12-12--12--|
A|---------------------------------------------------------------------------|
E|---------------------------------------------------------------------------|

Solo figures:
Figure 6:
e|---------------------------------------------------------------------------|
B|---------------------------------------------------------------------------|
G|---------------------------------------------------------------------------|
D|-10-10-10p9-------9h10-10-10-9-9-9-7-9-10-7-5h7p5--10-10-10-----------7----|
A|------------10-10--------------------------------8----------10-10-10-8--10-|
E|---------------------------------------------------------------------------|

Intro:
*(Figure 1)
. C . G . Am . F G .

Verse:
*(Figure 2)
C               G              Am
It's alright now when you're here
F                      G
A bit of hope when you look into my eyes
C                G
Follow me to the other side
Am
You will never walk alone
    F            G
I'm always by your side
C       G                  Am
Hold on tight when we fall into the night
                 F           G
I will guard you now and the rest of my life


*(Figure 3)
C                      G                  Am
But there's one bitter lie, how I did you wrong
                              F          G
It wears me out and leaves me naked, the truth is
       Am
always strong


Bridge:
                F
I'm knocked down by your eyes
G
I think it's gonna happen


Chorus:
*(Figure 4)
C                 G                      Am
She's kind of weak she's/and not too fine
            F       C              G     F   G
But I'm burning inside and I'm shaking again
*(Figure 5)
C                 G                      Am
She's kind of weak she's/and not too fine
            F       C              G     F   G
But I'm burning inside and I'm shaking again


*(Figure 1)
. C . G . Am . F G .

*(Figure 2)
C              G               Am
It's colder now and you're not home
    F          G
I'm all awake, thinking of my own

*(Figure 3)
C               G
Feels like it's coming down
                    Am
It hurts being with me
             F   G                  Am
Don't walk away, can't you hear the scream


Bridge:
               F
When she's gone I don't know
G
Please tell me if it's gonna happen?

Chorus:
*(Figure 4)
C                 G                      Am
She's kind of weak she's/and not too fine
            F       C              G     F   G
But I'm burning inside and I'm shaking again
*(Figure 5)
C                 G                      Am
She's kind of weak she's/and not too fine
            F       C              G     F   G
But I'm burning inside and I'm shaking again

Solo:
*(Figure 6)
. C . G . G . Am . F . C . G . F

F            Am
I'm sorry now I'll make it up somehow
F                      G
Hurt me with something more and more

Chorus:
*(Figure 4)
C     G            Am  F
She's kind of weak
C       G       F      G
But I'm burning inside
*(Figure 5)
C                 G                      Am
She's kind of weak she's/and not too fine
            F       C              G     F   G  C
But I'm burning inside and I'm shaking again





Comments


Popular Takida tabs & chords
Curly Sue 1 Tabs
Handlake Village 1 Tabs
Jaded Tabs
Never Alone Always Alone 2 Tabs
The Things That We Owe Intro Tabs
The Things That We Owe Intro 1 Tabs
What Doesnt Kill You Tabs
Curly Sue Ukulele
Haven Stay Ukulele
Score Ukulele


Song lyrics



↑ Back to top | Tablatures and chords are parodies/interpretations of the original songs. You may use it for private study, scholarship, research or language learning purposes only
© 2014 AZChords.com Contact us | Privacy policy | DMCA | Add/correct tabs | Request tabs | Top 50 tabs