» » »

Babe Tabs (ver.1)

Artists:  A B C D E F G H I J K L M N O P Q R S T U V W X Y Z # 

Babe Tabs (ver.1)

Take That
Rating:
1/5 (2 votes)

Tabs too difficult? Try these video lessons and learn fast.
                #------------------------------------------------------------------------------##




Hi! Some time back, I posted a request for the crds/tabs to this song by the
Brit grp Take That. Well, here's what I have tabbed for part of the verse 
for the moment.

e----------0-------|---------0-------|---------0----------------------------
B------0-------0---|-----0-------0---|-----1-------1------------------------
G----0---0---0---0-|---2---2---2---2-|---0---0---0---0----------------------
D--2---------------|-4---------------|-2------------------------------------
A------------------|-----------------|--------------------------------------
E------------------|-----------------|--------------------------------------

e|---------0-------
B|-----0-------0---
G|---2---2---2---2-
D|-4---------------
A|-----------------
E|-----------------

I have only figured out some of the crds to the chorus part: 
Em (some-othercrd) then Am, and so on...

This is my first time tabbing, and also as I'm a pretty green guitarist, 
I do hope I have not made any grave stupid mistakes.
Thanx!
            
Tabs too difficult? Try these video lessons and learn fast.


comments powered by Disqus
↑ Back to top | Tablatures and chords are parodies/interpretations of the original songs. You may use it for private study, scholarship, research or language learning purposes only