» » »

Hangover Bass tabs (ver.1)

Artists:  A B C D E F G H I J K L M N O P Q R S T U V W X Y Z # 

Hangover Bass tabs (ver.1)

Taio Cruz
Rating:
0/5 (0 votes)

Hard to play? Try these video lessons and learn fast.
                -------------------------------------------------------------------------------
-------------------------------------------------------------------------------


Tuning: E, A, D, G

| /  slide up
| \  slide down
| h  hammer-on
| p  pull-off
| ~  vibrato
| +  harmonic
| x  Mute note


Intro:

G|---------------------------------------------------------------------------|
D|---------------------------------------------------------------------------|
A|3-------3--------3---------3---------6---------6---------6---------6-------|
E|---------------------------------------------------------------------------|

G|---------------------------------------------------------------------------||
D|---------------------------------------------------------------------------||
A|---------------------------------------------------------------------------||
E|6-------6--------6---------4---------4---------4---------4---------4-------|| 2X


G|5-------5--------5---------5---------8---------8---------8---------8-------|
D|---------------------------------------------------------------------------|
A|---------------------------------------------------------------------------|
E|---------------------------------------------------------------------------|

G|---------------------------------------------------------------------------||
D|8-------8--------8---------6---------6---------6---------6---------6-------||
A|---------------------------------------------------------------------------||
E|---------------------------------------------------------------------------|| 2X



Then there is a part with artificial bass, but it's the same line as the intro.



At the part where Flo Rida starts rapping (at about 2:00), the following bass line is played:

G|---------------------------------------------------------------------------|
D|---------------------------------------------------------------------------|
A|3-------3--------3---------3/--------6---------6---------6---------6/------|
E|---------------------------------------------------------------------------|

G|---------------------------------------------------------------------------||
D|---------------------------------------------------------------------------||
A|13------13-------13\-------11--------11--------11--------11--------11------||
E|---------------------------------------------------------------------------|| 2X   
										      

G|---------------------------------------------------------------------------|
D|---------------------------------------------------------------------------|
A|3----------------x-------------------6-------------------x-----------------|
E|---------------------------------------------------------------------------|

G|---------------------------------------------------------------------------||
D|---------------------------------------------------------------------------||
A|13------13-------13\-------11--------11--------11--------11--------11------||
E|---------------------------------------------------------------------------|| 1X


G|---------------------------------------------------------------------------|
D|---------------------------------------------------------------------------|
A|3-------3--------3---------3/--------6---------6---------6---------6/------|
E|---------------------------------------------------------------------------|

G|---------------------------------------------------------------------------||
D|---------------------------------------------------------------------------||
A|13---------------x---------11--------11--------11--------11--------11------||
E|---------------------------------------------------------------------------|| 1X


G|---------------------------------------------------------------------------|
D|---------------------------------------------------------------------------|
A|3-------3--------3---------3/--------6-------------------x-----------------|
E|---------------------------------------------------------------------------|

G|---------------------------------------------------------------------------||
D|---------------------------------------------------------------------------||
A|13------13-------13\-------11--------x-------------------------------------||
E|---------------------------------------------------------------------------|| 1X


G|---------------------------------------------------------------------------|
D|---------------------------------------------------------------------------|
A|3-------3--------3---------3/--------6---------6---------6---------6/------|
E|---------------------------------------------------------------------------|

G|---------------------------------------------------------------------------||
D|---------------------------------------------------------------------------||
A|13------13-------13\-------11--------11--------11--------11--------11------||
E|---------------------------------------------------------------------------|| 2X


G|---------------------------------------------------------------------------|
D|---------------------------------------------------------------------------|
A|3-------3--------3x------------------6---------6---------6x----------------|
E|---------------------------------------------------------------------------|

G|---------------------------------------------------------------------------||
D|---------------------------------------------------------------------------||
A|13------13x----------------------------------------------------------------||
E|---------------------------------------------------------------------------||

The D# can be played on the 1st fret of the D string 
and the A# and the G# can be played on the 3rd and 1st fret of the G string,
but it all sounds better this way


now the artificial bass is played once again, with the bass line of the intro.
this repeats untill the end



Thanks for using my tab! hopefully it'll help you out.

I recommend listening to the song thouroughly yourself too, 
so you know what to play when.

This is my first tab so don't be too hard on me!
Mail me with any corrections.


===============================================================================
            
Hard to play? Try these video lessons and learn fast. | Correct




comments powered by Disqus
↑ Back to top | Tablatures and chords are parodies/interpretations of the original songs. You may use it for private study, scholarship, research or language learning purposes only