» » »

Taio Cruz, Hangover Tabs (ver.1)

Artists:  A B C D E F G H I J K L M N O P Q R S T U V W X Y Z # 

Hangover Tabs (ver.1)

Taio Cruz Tabs
 Rating:
4/5 (4 votes)
Hangover lessons Tabs too difficult? Try these video lessons and learn fast
                |-------------------------|------|
|-------------------------|------|
|-------------------------|------|      This is the intro
|---3---3--6-6-6----------|------|       witch one is repeating
|---3---3--6-6-6--6-6x6-4-|-4-4--|        all the lyrics...
|---1---1--4-4-4--6-6x6-4-|-4-4--|

  You can play it (if you like) like this:
|-------------------------|------|
|-------------------------|------|
|-------------------------|------|
|---5---5--8-8-8----------|------|
|---5---5--8-8-8--8-8x8-6-|-6-6--|
|---3---3--6-6-6--8-8x8-6-|-6-6--|
                                                Any problems?
And ten another part is like CHOURS:                     Let me know:

|---8-6------------|---8-6---------8s1-|   Repeat this 2x
|-8b^---8--6s4-8---|-8b^---8--6s4--8s1-|
|----------------5-|-------------------|
|------------------|-------------------|
|------------------|-------------------|
|------------------|-------------------|

And the lyrics:
I got a hangover, wo-oh!
I've been drinking too much for sure
I got a hangover, wo-oh!
I got an empty cup
Pour me some more

So I can go until I blow up, eh
And I can drink until I throw up, eh
And I don't ever ever want to grow up, eh
I wanna keep it going, keep keep it going, going, going, going....

[Taio]
I got a little bit trashed last night, night
I got a little bit wasted, yeah yeah
I got a little bit mashed last night, night
I got a little shhh faced it, yeah yeah

Oh oh oh oh oh
I'm on the roof
If you don't know
Well now you know

[Taio Cruz - Hook]
I got a hangover, wo-oh!
I've been drinking too much for sure
I got a hangover, wo-oh!
I got an empty cup
Pour me some more

So I can go until I blow up, eh
And I can drink until I throw up, eh
And I don't ever ever want to grow up, eh
I wanna keep it going, keep keep it going, come on!

[Flo Rida - Rap]
Drink up, cause a party ain't a party til you ride all through it
End up on the floor can't remember you clueless
Officer like What the hell is you doing
Stumbling, fumbling, you wonder what? come again
Give me Henn, give me gin, give me liquor, give me champagne
Bubbles til the end
What happens after that, if you inspired it til I'm ten
I call my homie Taio, we can all sip again
Get it in and again and again
Wasted so what, irrelevant
We're kicked to the head, who's selling it
I got a hangover, that's my medicine
Don't mean like I said, I'm too intelligent
A little jack can't hurt this veteran
I show up but I never throw up, so let the drinks go up, go up

[Taio Cruz]
I got a hangover, wo-oh!
I've been drinking too much for sure
I got a hangover, wo-oh!
I got an empty cup
Pour me some more

So I can go until I blow up, eh
And I can drink until I throw up, eh
And I don't ever ever want to grow up, eh
I wanna keep it going, keep keep it going, come on!
            
Submit corrections

comments powered by Disqus
↑ Back to top | Taio Cruz Tabs for Hangover. Lyrics for acoustic guitar and electric guitar. Tablatures and chords are parodies/interpretations of the original songs. You may use it for private study, scholarship, research or language learning purposes only