>
 >
Nattestid

Nattestid Guitar Tabs

Taake - Nattestid chords, tabs, tablatures, lyrics

Guitar lessons | Add/correct | Request | Top 50 tabs Artists:  A B C D E F G H I J K L M N O P Q R S T U V W X Y Z 0-9

Nattestid Guitar Tabs – Taake

CD, Sheet music, Poster

Do you like Nattestid? Share with your friends now
Tabs
Taake - Nattestid part7 only from 5:33 - 6:22

normal tune (E A D G B E)

(5:33)                                                       (5:38)
|----------------------------------|------------------------------|
|----------------------------------|------------------------------|
|----------------------------------|------------------------------|
|-------5------5-------4-5-7-5-4---|-----4--------4-----\7--------|
|---------7------7-----------------|-------5--------5-----7---7---|
|----0------7------7---------------|--7------7--------------8-----|

(5:42)                                                      (5:46)
  at this part i'm not sure
|----------------------------------|-----------------------------|
|----------------------------------|-----------------------------|
|----------------------------------|-----------------------------|
|-------5------5-------4-5-7-5-4---|-----4--------4--------------|
|---------7------7-----------------|-------5--------5----7-------|
|----0------7------7---------------|---7-----7-------------------|

(5:50)                                                       (5:55)
|----------------------------------|------------------------------|
|----------------------------------|------------------------------|
|----------------------------------|------------------------------|
|-------5------5-------4-5-7-5-4---|-----4--------4-----\7--------|
|---------7------7-----------------|-------5--------5-----7---7---|
|----0------7------7---------------|--7------7--------------8-----|

(5:58)                                                      (6:03)
 at this part i'm not sure
|----------------------------------|-----------------------------|
|----------------------------------|-----------------------------|
|----------------------------------|-----------------------------|
|-------5------5-------4-5-7-5-4---|-----4--------4--------------|
|---------7------7-----------------|-------5--------5----7-------|
|----0------7------7---------------|---7-----7-------------------|

(6:07)     i'm not sure if this is a slide
|------------------------------------------|
|------------------------------------------|
|------------------------------------------|
|----9p-7----------------------------------|
|----------10-9-10-9-10(\)12-10-12-10-9----|
|------------------------------------------|

(6:11)                                                           (6:15)
|---------------------------|-----------------------------------------|
|---------------------------|-----------------------------------------|
|---------------------------|-----------------------------------------|
|-----4-----4-----\7--------|---5------5------4-5-7-5-4----9--9--9--9-|
|-------5-----5-----7---7---|-----7------7--------------------9----9--|
|--7------7-----------8-----|-0-----7------7--------------7-----------|


p=pull off
\=slide

      any correctiony or the whole song are welcome





Comments


Popular Taake tabs & chords
Doedskvad Part 3 Tabs
Hordaland Doedskvad Part Iii Tabs
Nattestid Part 1 Tabs
Voldtekt Intro Tabs


Song lyrics



↑ Back to top | Tablatures and chords are parodies/interpretations of the original songs. You may use it for private study, scholarship, research or language learning purposes only
© 2014 AZChords.com Contact us | Privacy policy | DMCA | Add/correct tabs | Request tabs | Top 50 tabs