» » »

Switched, Walk Away Tabs (ver.2)

Artists:  A B C D E F G H I J K L M N O P Q R S T U V W X Y Z # 

Walk Away Tabs (ver.2)

Switched Tabs
 Rating:
4/5 (4 votes)
Walk Away lessons Tabs too difficult? Try these video lessons and learn fast
1
                SW1TCHED
Anymore

Tuning: A-E-A-D-G-B

Intro (distortion):
[12-12-12----12-12-12-12----- \
[15-15-15----15-15-15-15----- \
[------------------------\--- \
[---------------------------- \
[------------------------ --- \
[------------------------  -- \
                             \
[12-12-12-12-12-12-12-12-    -------------------------- \
[15-15-15-15-15-15-15-15-     ------------------------- \
[------------------------      ------------------------ \
[------------------------  2X    play this whole thing- \ 4X
[------------------------------------------------------ \       /
[------------------------------------------------------ \      /
                              /
[12-12-12----12-12-12---- \    /
[15-15-15----15-15-15---- \   /
[------------------------ \  /
[------------------------ \ /
[------------------------ \
[------------------------ \

enter second guitar 3rd time above is played (distortion):
[--------------------------------|
[--------------------------------|
[--------------------------------|
[--------------------------------|  play 2X
[--------------------------------|
[2-3-0-3-5-0-3-2-0-3-5-0-3-2-----|

[--------------------------------|
[--------------------------------|
[--------------------------------|
[--------------------------------|
[--------------------------------|
[2-3-0-3-5-0-3-2-0-3-5-0-3-2-3-2-|

[--------------------------------|
[--------------------------------|
[--------------------------------|
[--------------------------------|
[--------------------------------|
[2-3-0-3-5-0-3-2-0-3-5-0-3-2-----|

[--------------------------|
[--------------------------|
[--------------------------|
[--------------------------|
[14/0-(this is a slide down)
[14/0-----------------------

[--------------------------------|
[--------------------------------|
[--------------------------------|
[2-3-0-3-5-0-3-2-0-3-5-0-3-2-----|  play 2X
[2-3-0-3-5-0-3-2-0-3-5-0-3-2-----|
[2-3-0-3-5-0-3-2-0-3-5-0-3-2-----|

[--------------------------------|
[--------------------------------|
[--------------------------------|
[2-3-0-3-5-0-3-2-0-3-5-0-3-2-3-2-|
[2-3-0-3-5-0-3-2-0-3-5-0-3-2-3-2-|
[2-3-0-3-5-0-3-2-0-3-5-0-3-2-3-2-|

                        ?1   2   3   4...
[--------------------------------------|
[--------------------------------------|
[------------------------6---6---6---6-|
[2-3-0-3-5-0-3-2-0-3-5-0-5---5---5---5-|
[2-3-0-3-5-0-3-2-0-3-5-0-4---4---4---4-|
[2-3-0-3-5-0-3-2-0-3-5-0---------------|

..f**k!!!?
[--------------------------------|
[--------------------------------|
[--------------------------------|
[3-2-----2---3-2-----2---3-2-----|  play 4X
[3-2-----2---3-2-----2---3-2-----|
[3-2-----2---3-2-----2---3-2-----|

Verse:
[----14--14--14--14--14--14--14--|
[--------------------------------|
[--------------------------------|
[--------------------------------|
[--------------------------------|
[--------------------------------|

[14--14--14--14--14--14--14--15--|
[--------------------------------|
[--------------------------------|
[--------------------------------|
[--------------------------------|
[--------------------------------|

[15--12--12--12--12--12--12--12--|
[--------------------------------|
[--------------------------------|
[--------------------------------|
[--------------------------------|
[--------------------------------|

[12--12--12--12--12--12--12--15--|
[--------------------------------|
[--------------------------------|
[--------------------------------|
[--------------------------------|
[--------------------------------|

[14--14--14--14--14--14--14--14--|
[--------------------------------|
[--------------------------------|
[--------------------------------|
[--------------------------------|
[--------------------------------|

[14--14--14--14--14--14--14--15--|
[--------------------------------|
[--------------------------------|
[--------------------------------|
[--------------------------------|
[--------------------------------|

[15--12--12--12--12--12--12--12--|
[--------------------------------|
[--------------------------------|
[--------------------------------|
[--------------------------------|
[--------------------------------|

[12--12--12--12-(let ring)-------|
[--------------------------------|
[--------------------------------|
[--------------------------------|
[--------------------------------|
[--------------------------------|

Pre-chorus:
[--------------------------------|
[--------------------------------|
[--------------------------------|
[2-3-0-3-5-0-3-2-0-3-5-0-3-2-----|  play 2X
[2-3-0-3-5-0-3-2-0-3-5-0-3-2-----|
[2-3-0-3-5-0-3-2-0-3-5-0-3-2-----|

[--------------------------------|
[--------------------------------|
[--------------------------------|
[2-3-0-3-5-0-3-2-0-3-5-0-3-2-3-2-|
[2-3-0-3-5-0-3-2-0-3-5-0-3-2-3-2-|
[2-3-0-3-5-0-3-2-0-3-5-0-3-2-3-2-|

[--------------------------------|
[--------------------------------|
[--------------------------------|
[2-3-0-3-5-0-3-2-0-3-5-0-3-2-----|
[2-3-0-3-5-0-3-2-0-3-5-0-3-2-----|
[2-3-0-3-5-0-3-2-0-3-5-0-3-2-----|

Chorus:
[--------------------------------|
[--------------------------------|
[--------------------------------|
[0-2---3-5---3-2---3-5---3-2-----|  play 2X
[0-2---3-5---3-2---3-5---3-2-----|
[0-2---3-5---3-2---3-5---3-2-----|

[--------------------------------|
[--------------------------------|
[--------------------------------|
[7---7---7---7---7---7-------3---|
[7---7---7---7---7---7-------3---|
[7---7---7---7---7---7-------3---|

[--------------------------------|
[--------------------------------|
[--------------------------------|
[------3---3---3---3---3---3---3-|
[------3---3---3---3---3---3---3-|
[------3---3---3---3---3---3---3-|

Brief interlude:
[--------------------------------|
[--------------------------------|
[--------------------------------|
[0-2---3-5---3-2---3-5---3-2-----|  play 2X
[0-2---3-5---3-2---3-5---3-2-----|
[0-2---3-5---3-2---3-5---3-2-----|

[--------------------------------|
[--------------------------------|
[6---6---6---6---6---------------|
[5---5---5---5---5-(let ring)----|
[4---4---4---4---4---------------|
[--------------------------------|

verse

pre-chorus

chorus

Bridge:
[----------------------------------------------------------------|
[----------------------------------------------------------------|
[----------------------------------------------------------------|
[--------------------3-2-3-2---------2---7-6-7-6---0-2-5-3-------|  play 4X
[----------------------------------------7-6-7-6---0-2-5-3-------|
[2-------3-2-3-2---------------2-0-2-----7-6-7-6---0-2-5-3-------|

[--------------------------------------------|
[--------------------------------------------|
[--------------------------------------------|
[2-------3-2-3-2-----3-2-3-2---------2-------|
[2-------3-2-3-2-----3-2-3-2-----------------|
[2-------3-2-3-2-----3-2-3-2---2-0-2---0-2-3-|

pre-chorus

clean until..............here
[------------------------|-------|
[------------------------v-------|
[--------------------------------|
[------------------------7-------|
[------------------------7-------|
[2-3-0-3-5-0-3-2-0-3-5-0-7-------|

chorus 2X

Ending:
[--------------------------------|
[--------------------------------|
[--------------------------------|
[0-2---3-5---3-2---3-5---3-2-----|  play 4X
[0-2---3-5---3-2---3-5---3-2-----|
[0-2---3-5---3-2---3-5---3-2-----|

[--------------------------------|
[--------------------------------|
[6---6---6---6---6---6---6/0-----|
[5---5---5---5---5---5---5/0-----|
[4---4---4---4---4---4---4/0-----|
[--------------------------------|
                         ^end on

~35 Lives
            
Submit corrections

comments powered by Disqus
↑ Back to top | Switched Tabs for Walk Away. Lyrics for acoustic guitar and electric guitar. 1 Tablatures and chords are parodies/interpretations of the original songs. You may use it for private study, scholarship, research or language learning purposes only