» » »

Survivor, Eye Of The Tiger Tabs (ver.3)

Artists:  A B C D E F G H I J K L M N O P Q R S T U V W X Y Z # 

Eye Of The Tiger Tabs (ver.3)

Survivor Tabs
Rating:
4/5 (8 votes)
Eye Of The Tiger lessons Tabs too difficult? Try these video lessons and learn fast
                -------------------------------------------------------------------------------
                  EYE OF THE TIGER - Survivor
-------------------------------------------------------------------------------


Well not really my first tab but its right.
I my opinion the opening note is not on E-8 but rather A-3
(yes same note but the tone sounds more correct)

Standard format EADGBe


~=let note ring
\=slide up the fret
/=slide down the fret


Intro (Guitar #1)
e|----------------------------|
B|----------------------------|
G|----------------------------|
D|----------------------------| (you get the idea)
A|-3-3-3-3-3-3-3-3-3-3-3-3-3-3|
E|----------------------------|

Intro (Guitar #2)
e|----------------------------|
B|----------------------------|
G|-5---5-3-5---5-3-5---5-3----|
D|-5---5-3-5---5-3-5---5-3-6~-|
A|-3---3-1-3---3-1-3---3-1-6~-|
E|-------------------------4~-|

------------------------------|
------------------------------|
---5---5-3-5----5-3-5--5-3----|
---5---5-3-5----5-3-5--5-3-6~-|
---3---3-1-3----3-1-3--3-1-6~-|(note the timing difference)
---------------------------4~-|

e|-----3---3~--3---3~--3-------|
B|-----4-3-4~--4-3-4~--4-3-----|
G|-5---5-3-5~--5-3-5~--5-3-5~--|
D|-5---5-3-5~--5-3-5~--5-3-6~--|
A|-3---3-1-3~--3-1-3~--3-1-6~--|
E|-------------------------4~--|

-------3---3~--3---3~--3-------------|
-------4-3-4~--4-3-4~--4-3-------4\--|
---5---5-3-5~--5-3-5~--5-3-5~----5\--|
---5---5-3-5~--5-3-5~--5-3-6~----5\--|
---3---3-1-3~--3-1-3~--3-1-6~----3\--|
---------------------------4~--------|

Verse (Guitar #1)
e|----------------------------|
B|----------------------------|
G|----------------------------|
D|----------------------------| (Played entire verse)
A|-3-3-3-3-3-3-3-3-3-3-3-3-3-3|
E|----------------------------|


Verse (Piano-to-Guitar Translation)
e|--3~-------------3~--|
B|--4~--------3~---4~--|
G|--5~---5~---3~---5~--|
D|--5~---6~---3~---5~--|
A|--3~---6~---1~---3~--| (repeated till Chorus)
E|-------4~------------|

Chorus
e|-------------------------------|
B|------------3~-----------4--3~-|
G|-1~----8~---3~-----3~----5--3~-|
D|-3~----8~---3~-----3~----5--3~-|
A|-3~----6~---1~-----3~----3--1~-|
E|-1~----------------1~----------|

---------------------------------|
--------------3~-----------4--3~-|
---1~----8~---3~-----3~----5--3~-|
---3~----8~---3~-----3~----5--3~-|
---3~----6~---1~-----3~----3--1~-|
---1~----------------1~----------|

---------------------------|
---------------------------|
---------------------------|
-3---1---3-\-5---3---5-\-6-|
---------------------------|
---------------------------|


Outro
e|-----3---3~--3---3~--3-------|
B|-----4-3-4~--4-3-4~--4-3-----|
G|-5---5-3-5~--5-3-5~--5-3-5~--|
D|-5---5-3-5~--5-3-5~--5-3-6~--|
A|-3---3-1-3~--3-1-3~--3-1-6~--|
E|-------------------------4~--|

-------3---3~--3---3~--3-------------|
-------4-3-4~--4-3-4~--4-3-------4\--|
---5---5-3-5~--5-3-5~--5-3-5~----5\--|
---5---5-3-5~--5-3-5~--5-3-6~----5\--| (repeat to fade)
---3---3-1-3~--3-1-3~--3-1-6~----3\--|
---------------------------4~--------|

Congradulations you can now play Eye of the Tiger,
the awesome song from Rocky III.
            

comments powered by Disqus
↑ Back to top | Survivor Tabs for Eye Of The Tiger. Lyrics for acoustic guitar and electric guitar. Tablatures and chords are parodies/interpretations of the original songs. You may use it for private study, scholarship, research or language learning purposes only