>
 >
Unite

Unite Guitar Tabs

Super Tones - Unite chords, tabs, tablatures, lyrics

Guitar lessons | Add/correct | Request | Top 50 tabs Artists:  A B C D E F G H I J K L M N O P Q R S T U V W X Y Z 0-9

Unite Guitar Tabs – Super Tones

CD, Sheet music, Poster

Do you like Unite? Share with your friends now
Bass TabsBass Tabs v2Tabs
PROPS GO TO: Chris Fawcett

Intro(part 1)
  Bb5   C#5 Bb5 G#5 A5 Bb5   C#5 Bb5     G#5 
E-------------------------------------------------------------------------
B-------------------------------------------------------------------------
G--------6--------------------6-------------------------------------------
D--8--8--6--8--8--6-7--8-8-8--6--8--8--8--6-------------------------------
A--8--8--4--8--8--6-7--8-8-8--4--8--8--8--6-------------------------------
E--6--6-----6--6--4-5--6-6-6-----6--6--6--4-------------------------------

Intro(part 2)(heavy distortion)
   Bb5              G#5              Bb5              C#5
E-------------------------------------------------------------------------
B-------------------------------------------------------------------------
G-----------------------------------------------------6-6-6-6-6-6-6-6-----
D--8-8-8-8-8-8-8-8--6-6-6-6-6-6-6-6--8-8-8-8-8-8-8-8--6-6-6-6-6-6-6-6-----
A--8-8-8-8-8-8-8-8--6-6-6-6-6-6-6-6--8-8-8-8-8-8-8-8--4-4-4-4-4-4-4-4-----
E--6-6-6-6-6-6-6-6--4-4-4-4-4-4-4-4--6-6-6-6-6-6-6-6----------------------

   Bb5              G#5              Bb5              F5
E-------------------------------------------------------------------------
B-------------------------------------------------------------------------
G-----------------------------------------------------10-10-10------------
D--8-8-8-8-8-8-8-8--6-6-6-6-6-6-6-6--8-8-8-8-8-8-8-8--10-10-10------------
A--8-8-8-8-8-8-8-8--6-6-6-6-6-6-6-6--8-8-8-8-8-8-8-8--8--8--8-------------
E--6-6-6-6-6-6-6-6--4-4-4-4-4-4-4-4--6-6-6-6-6-6-6-6----------------------

   Bb5              G#5              Bb5              C#5
E-------------------------------------------------------------------------
B-------------------------------------------------------------------------
G-----------------------------------------------------6-6-6-6-6-6-6-6-----
D--8-8-8-8-8-8-8-8--6-6-6-6-6-6-6-6--8-8-8-8-8-8-8-8--6-6-6-6-6-6-6-6-----
A--8-8-8-8-8-8-8-8--6-6-6-6-6-6-6-6--8-8-8-8-8-8-8-8--4-4-4-4-4-4-4-4-----
E--6-6-6-6-6-6-6-6--4-4-4-4-4-4-4-4--6-6-6-6-6-6-6-6----------------------

   Bb5              G#5              Bb5      F5
E-------------------------------------------------------------------------
B-------------------------------------------------------------------------
G-------------------------------------------------------------------------
D--8-8-8-8-8-8-8-8--6-6-6-6-6-6-6-6--8--8--8--3---------------------------
A--8-8-8-8-8-8-8-8--6-6-6-6-6-6-6-6--8--8--8--3---------------------------
E--6-6-6-6-6-6-6-6--4-4-4-4-4-4-4-4--6--6--6--1---------------------------

Verse(no distortion)(up, up down up)(4x)
   Bbm       G#m       Bbm       G#m
E--6--6-6-6--4--4-4-4--6--6-6-6--4--4-4-4---------------------------------
B--6--6-6-6--4--4-4-4--6--6-6-6--4--4-4-4---------------------------------
G--6--6-6-6--4--4-4-4--6--6-6-6--4--4-4-4---------------------------------
D--8--8-8-8--6--6-6-6--8--8-8-8--6--6-6-6---------------------------------
A--8--8-8-8--6--6-6-6--8--8-8-8--6--6-6-6---------------------------------
E--6--6-6-6--4--4-4-4--6--6-6-6--4--4-4-4---------------------------------
   Live and undrugged, 6 years and countin'...

Chorus(heavy distortion)
   Bb5     D5      C5      F5      Bb5     D5      C5      F5
E-------------------------------------------------------------------------
B-------------------------------------------------------------------------
G----------8--8-8----------10-1010---------8--8-8----------10-1010--------
D--8--8-8--8--8-8--10-1010-10-1010-8--8-8--8--8-8--10-1010-10-1010--------
A--8--8-8--6--6-6--10-1010-8--8-8--8--8-8--6--6-6--10-1010-8--8-8---------
E--6--6-6----------8--8-8----------6--6-6----------8--8-8-----------------
  Unite, ignite, and spark a light to burn...
   
   Bb5     D5      C5      F5      Bb5     D5      C5       F5
E-------------------------------------------------------------------------
B-------------------------------------------------------------------------
G----------8--8-8----------10-1010---------8--8-8-------------------------
D--8--8-8--8--8-8--10-1010-10-1010-8--8-8--8--8-8--10-1010--3-------------
A--8--8-8--6--6-6--10-1010-8--8-8--8--8-8--6--6-6--10-1010--3-------------
E--6--6-6----------8--8-8----------6--6-6----------8--8-8---1-------------
  Unite, ignite, and spark a light to burn...

Bridge(part 1)(2x)

E-------------------------------------------------------------------------
B-------------------------------------------------------------------------
G-------------------------------------------------------------------------
D-------------------------------------------------------------------------
A--1-1-1-1---1-------6-----1-1-1---1--4-4-4-4-3-------------------------
E----------1---4--4-----4--------1--------------4-----------------------

Bridge(part 2)(4x)
   Bb5      F5 Bb5 G#5 D5 G#5 Bb5 F5 Bb5 C#5   C5 G#5
E-------------------------------------------------------------------------
B-------------------------------------------------------------------------
G--3-3-3-3-3---3-------8-----3-3-3---3--6-6-6-6-5-------------------------
D--3-3-3-3-3-3-3-6--6--8--6--3-3-3-3-3--6-6-6-6-5-6-----------------------
A--1-1-1-1-1-3-1-6--6--6--6--1-1-1-3-1--4-4-4-4-3-6-----------------------
E------------1---4--4-----4--------1--------------4-----------------------
Never going back to the darkness...

Order:
Intro(part 1)
Intro(part 2)
Verse
Chorus
Intro(part 2)
Verse
Chorus
Bridge(part 1)
Bridge(part 2)





Comments


Popular Super Tones tabs & chords
Jury Duty Bass Tabs
One Voice 1 Bass Tabs
Perserverance Of The Saints 1 Bass Tabs
Return Of The Revolution Bass Tabs
Return Of The Revolution 1 Bass Tabs
Supertones Strike Back Bass Tabs
Unite 1 Bass Tabs
Resolution Chords
Found Tabs
Little Man Tabs


Song lyrics



↑ Back to top | Tablatures and chords are parodies/interpretations of the original songs. You may use it for private study, scholarship, research or language learning purposes only
© 2014 AZChords.com Contact us | Privacy policy | DMCA | Add/correct tabs | Request tabs | Top 50 tabs