» » »

Super Tones, Unite Bass tabs (ver.1)

Artists:  A B C D E F G H I J K L M N O P Q R S T U V W X Y Z # 

Unite Bass tabs (ver.1)

Super Tones Tabs
Rating:
0/5 (0 votes)
Hard to play? Try these video lessons and learn fast.
                O.C. Supertones
Supertones Strike Back!

Intro
G----------------------------------------------------------------
D----------------------------------------------------------------
A-------------4-----------------------4--------------------------
E-----6-6---------6-6---4-5---6-6------6-6-6-4---------------

Riff 1
G----------------------------------------------------------------
D----------------------------------------------------------------
A----------------------------4-44-------------------------------
E-----6--66--4--44--6-66--------------------------------------   Repeat x 8

Verse
G----------------------------------------------------------------
D----------------------------------------------------------------
A----11------1--------6------------11---1--44443------------
E---------1-----444-----4-------------1-----------4-----------  Repeat as necessary until chorus

Chorus
G----------------------------------------------------------------
D--------------------------3-3-3-3--------------------------------
A----------6-6-6-6--3-3------------------6-6-6-6--3-3----------
E----6-6-----------------------------6-6-----------------1-1-1-1

Verse
Chorus
Bridge-No bass
Verse

Awesome band
Have fun
Ska will never die
            

comments powered by Disqus
↑ Back to top | Super Tones Bass for Unite. Lyrics for acoustic guitar and electric guitar. Tablatures and chords are parodies/interpretations of the original songs. You may use it for private study, scholarship, research or language learning purposes only