» » »

Superman Is Dead, Rock N Roll Band Tabs (ver.2)

Artists:  A B C D E F G H I J K L M N O P Q R S T U V W X Y Z # 

Rock N Roll Band Tabs (ver.2)

Superman Is Dead Tabs
 Rating:
4/5 (4 votes)
Rock N Roll Band lessons Tabs too difficult? Try these video lessons and learn fast
                Song         : Rock n Roll Band
Artist       : Superman Is Dead
Album        : The Hangover Decade


Fig1
e|--------------------------------------------|
B|--------------------------------------------|
G|--------------------------------------------|
D|--0-0-0--0-0-0-0-0--0-0-0-0-0--0-0-0-0-0-0--|
A|--------------------------------------------|
E|--------------------------------------------|

Fig2
e|------------------------------------------|
B|------------------------------------------|
G|------------------------------------------|
D|---------------------------------------4--|
A|--5-----------5-----------5---5---5--7----|
E|-----5-5-5-5-----5-5-5-5----5---5---------|

e|------------------------------------------|
B|------------------------------------------|
G|------------------------------------------|
D|--------------------------------4---------|
A|--5-----------5-----------5---5---7--4-5--|
E|-----5-5-5-5-----5-5-5-5----5-------------|

e|----------------------------------------------|
B|----------------------------------------------|
G|----------------------------------------------|
D|--4--4-4--------------------------------------|
A|---------7--7-7-5--5-5-4--4-4------4-5-4------|
E|-------------------------------7-7-------5-5--|

e|-------------------------------------------------|
B|-------------------------------------------------|
G|-------------------------------------------------|
D|------------------------------------------4---4--|
A|--7--7-7-5--5-5-4--4-4--------4--4-4--5-7---5----|
E|-----------------------7--7-7--------------------|

e|----------------------------------------------|
B|----------------------------------------------|
G|----------------------------------------------|
D|--4--4-4---------------------------------4-5--|
A|---------7--7-7-5--5-5-4--4-4------4-5-7------|
E|-------------------------------7--------------|


CHORD

Fig1   G5 A5   G5 A5   G5 A5   G5 A5
Fig1   G5 A5   G5 A5   G5 A5   G5 A5
D5

C#5 D5   C#5 D5   C#5 D5   C#5 D5
A5   B5 G5   F#5 G5   A5 F#5
C#5 D5   C#5 D5   C#5 D5   C#5 D5
A5   B5 G5   F#5 G5   A5 F#5

C#5 D5

D5 C#5 B5

B5          G5        A5
there's a reason we standing today
B5          G5        A5
like a reason we fight for what we love
B5          G5        A5
thousand hopes in my generation
G5       A5
breaking down

B5          G5        A5
radio there is no distortion
B5          G5        A5
television consumed you to the bone
B5          G5        A5  G5           A5
so i said, let's make resolution never fade

G5  A5       D5    C#5 B5  A5 G5      A5       D5  C#5 D5
not here for those teenage icons,were just not them
G5  A5       D5    C#5 B5  A5 G5      A5
john bo,boots and tiger prints,here we go

coz we are
D5
rock and roll band
G5      A5
born to rock coz we are
D5
rock and roll band
G5      A5
yeah,we rock coz we are 
D5
rock and roll band
G5      A5
coz we are rock and roll now
G5      A5
and all these could feel it all along

D5   C#5 D5   C#5 D5   C#5 D5
A5   B5 G5   F#5 G5   A5 F#5

C#5 D5

D5 C#5 B5

B5          G5        A5
there's a price for youth degredation
B5          G5        A5
dont believe intruth mannipulation
B5          G5        A5
good and truth,we'll make it
G5        A5
beautiful somehow

G5  A5       D5 C#5 B5 A5 G5      A5       D5  C#5 D5
not here for identity fight we'rejust the same
G5  A5       D5    C#5 B5  A5 G5      A5
hardcore,punk,oi,skinhead,rude boys,sing with me

coz we are
D5
rock and roll band
G5      A5
born to rock coz we are
D5
rock and roll band
G5      A5
yeah,we rock coz we are 
D5
rock and roll band
G5      A5
coz we are rock and roll now
G5      A5
and all these could feel it

B5          G5
upper glass,forget the past
D5          A5
join and joy to sing with us
B5          G5
brighter sky for tomorrow is
D5          A5
there for you and the star
A#5  C5 D5
star up high

A5 D5   A5 D5   A5 D5

Fig2
      E5 F#5
      C#5 D5
D5        A5
A5        D5
D5        G5

                  D5
good brighter sky tomorrow
    A5          D5
for you and the star

G5  A5       D5 C#5 B5 A5 G5      A5       D5  C#5 D5
not here for identity fight we'rejust the same
G5  A5       D5    C#5 B5  A5 G5      A5
hardcore,punk,oi,skinhead,rude boys,sing with me

coz we are
D5
rock and roll band
G5      A5
born to rock coz we are
D5
rock and roll band
G5      A5
yeah,we rock coz we are 
D5
rock and roll band
G5      A5
coz we are rock and roll now
G5      A5
and all these could feel it come

coz we are
D5
rock and roll band
G5      A5
born to rock coz we are
D5
rock and roll band
G5      A5
yeah,we rock coz we are 
D5
rock and roll band
G5      A5
coz we are rock and roll now
G5      A5
and all these could feel it comes along

D5   C#5 D5   C#5 D5   C#5 D5
            
Submit corrections

comments powered by Disqus
↑ Back to top | Superman Is Dead Tabs for Rock N Roll Band. Lyrics for acoustic guitar and electric guitar. Tablatures and chords are parodies/interpretations of the original songs. You may use it for private study, scholarship, research or language learning purposes only