» » »

Superheist, Two Faced Tabs (ver.1)

Artists:  A B C D E F G H I J K L M N O P Q R S T U V W X Y Z # 

Two Faced Tabs (ver.1)

Superheist Tabs
 Rating:
4.2/5 (5 votes)
Two Faced lessons Tabs too difficult? Try these video lessons and learn fast
1
                Tuning: Drop D (D,A,D,G,B,E)

All ‘lead guitar’ parts (or Guitar 2) are transcribed from keyboard so please
urslef what effects u use to simulate the sounds.  The intro part is the
most ‘effect ridden’ part of the song so feel free to play around with a slide
guitar to create the effect.

Intro

Guitar 1 (distortion + flanger)
|-----------------|-----------------|
|-----------------|-----------------|
|-----------------|-----------------|
|-7-7-7-7-7-7-7-7-|-7-7-7-7-7-7-7-7-|
|-7-7-7-7-7-7-7-7-|-7-7-7-7-7-7-7-7-|
|-7-7-7-7-7-7-7-7-|-7-7-7-7-7-7-7-7-|  etc.

Guitar 2 (after 4 bars) use tremelo picking or major reverb.
|----------------------------------------------------------------------|
|----------------------------------------------------------------------|
|----------------------------------------------14~~~~~~~~~~~~~~~~~~~\--|
|-7~~~~~~~~~~~~~~~~~~~~--14~~~~~~~~~~~~~~~~~~--------------------------|  
|----------------------------------------------------------------------|  
|----------------------------------------------------------------------|

Main Riff (both guitars) x4 bars

|----------------------------|-------------------------------|
|----------------------------|-------------------------------|
|----------------------------|-------------------------------|
|-7--7--7--7--7--7--7--7-7-7-|-2-3-3-3-3-3-3-3---0-0-0-0-0-0-|
|-7--7--7--7--7--7--7--7-7-7-|-2-3-3-3-3-3-3-3---0-0-0-0-0-0-|
|-7--7--7--7--7--7--7--7-7-7-|-2-3-3-3-3-3-3-3---0-0-0-0-0-0-| 

The next part goes a little something like this…

|---------------------------------|---------------------------------|
|---------------------------------|---------------------------------|
|---------------------------------|---------------------------------|
|-3-3-3-3-3-3-3-3-3-3-3-3-5-5-5-5-|-0-0-0-0-0-0-0-0-0-0-0-0-0-0-0-0-|
|-3-3-3-3-3-3-3-3-3-3-3-3-5-5-5-5-|-0-0-0-0-0-0-0-0-0-0-0-0-0-0-0-0-|
|-3-3-3-3-3-3-3-3-3-3-3-3-5-5-5-5-|-0-0-0-0-0-0-0-0-0-0-0-0-0-0-0-0-|
Pm. . . . . . . . . . . . . . . .   . . . . . . . . . . . . . . . .

|---------------------------------|---------------------------------|
|---------------------------------|---------------------------------|
|---------------------------------|---------------------------------|
|-3-3-3-3-3-3-3-3-3-3-3-3-5-5-5-5-|-0-0-0-0-0-0-0-0-0-0-0-0---------|
|-3-3-3-3-3-3-3-3-3-3-3-3-5-5-5-5-|-0-0-0-0-0-0-0-0-0-0-0-0-3~~~~---|
|-3-3-3-3-3-3-3-3-3-3-3-3-5-5-5-5-|-0-0-0-0-0-0-0-0-0-0-0-0---------|
Pm. . . . . . . . . . . . . . . .   . . . . . . . . . . . . 

Then play pretty much the same thing un-palm muted with G2 playing this…

|---------------------------------|-----------------------------------|
|---------------------------------|-----------------------------------|
|---------------------------------|-----------------------------------|
|---------------------------------|-----------------------------------|
|-7-5-0-7---5-0-7---5-0-7-5-0-5-7-|-(7)-5-0-7---5-0-7---5-0-7-5-0-5-7-|
|---------------------------------|-----------------------------------|

Repeat the Verse, Pre-Chorus and Chorus x2

Then the lyrics a cut out and G2 does this…

|---------------------------------|-----------------------------------|
|---------------------------------|-----------------------------------|
|---------------------------------|-----------------------------------|
|-7-5-0-7---5-0-7---5-0-7-5-0-5-7-|-(7)-5-0-7---5-0-7---5-0-7-5-0-5-7-|
|---------------------------------|-----------------------------------|
|---------------------------------|-----------------------------------|

Before moving into a shortened vrsn of the intro
Then Pre-Chorus a few times again (with little solo behind it)

G1 finishes the song like this:

|----------------------------|-------------------------------|
|----------------------------|-------------------------------|
|----------------------------|-------------------------------|
|-7--7--7--7--7--7--7--7-7-7-|-2-3-3-3-3-3-3-3---0--0--0-5~~-|
|-7--7--7--7--7--7--7--7-7-7-|-2-3-3-3-3-3-3-3---0--0--0-5~~-|
|-7--7--7--7--7--7--7--7-7-7-|-2-3-3-3-3-3-3-3---0--0--0-5~~-| 

G2 like this

|---------------------------------|----------------------------------------|
|---------------------------------|----------------------------------------|
|---------------------------------|----------------------------------------|
|-7-5-0-7---5-0-7---5-0-7-5-0-5-7-|-(7)-5-0-7---5-0-7---5-0-7-5-0-5/7\5~~~-|
|---------------------------------|----------------------------------------|
|---------------------------------|----------------------------------------|

Thankyou and feel free to critisize me in any way you wish........
            
Submit corrections

comments powered by Disqus
↑ Back to top | Superheist Tabs for Two Faced. Lyrics for acoustic guitar and electric guitar. 1 Tablatures and chords are parodies/interpretations of the original songs. You may use it for private study, scholarship, research or language learning purposes only