» » »

Superchunk, Learned To Surf Tabs (ver.1)

Artists:  A B C D E F G H I J K L M N O P Q R S T U V W X Y Z # 

Learned To Surf Tabs (ver.1)

Superchunk Tabs
 Rating:
4.3/5 (6 votes)
Learned To Surf lessons Tabs too difficult? Try these video lessons and learn fast
1
                -------------------------------------------------------------------------------
-------------------------------------------------------------------------------


Main riff (mac)

    D       |               quickly picked              |
e|------------------------------------------------------------------------0--|
B|-----------7-7--5--7-7-7-5-7-7-7-5--3--3-3--0-3--0---3---------3-----3--3--|
G|--7-7-7-7--7---------------7--------0--------------2-----2p0-----0------0--|
D|--7-7-7-7----------------------------------------------------2----------0--|
A|------------------------------------------------------------------2-----2--|
E|---------------------------------------------------------------------------|

play main riff 1x alone, 1x w/ bass and drums, 1x with 2nd guitar

2nd guitar (jim)

e|--9--------9----10--9------------------------------------------------------|
B|----10-------10--------10\----7------5--7---3------------------------------|
G|---------------------------------------------------------------------------|
D|---------------------------------------------------------------------------|
A|---------------------------------------------------------------------------|
E|---------------------------------------------------------------------------|

D               A     G
If I seem ou ou ou ou out of it

Bm                          F#m     G
I've just gone to find you, I'll be back in a bit

D               A      G
Circles clo o o o se up but circles are wide

Bm                        F#m       G                           Em   G
We'll be wearing wigs and costumes. Won't be any hope to hide


D                                G 
When I learned to walk, you know humans roamed the earth
Em                              G
I can't hold my breath anymore, I stopped sinking and learned to surf
D                                  G 
And when I learned to talk I found words that weren't worth dirt
Em                              G
I can't hold my breath anymore, I stopped swimming and learned to surf

*play main riff twice, 2nd guitar changes to

e|--9------9------10-9----------------------9-----9------10-9-------9-10-12--|
B|-----10-----10-------10--5/7--5--7--3-------10-----10-------10-12----------|
G|---------------------------------------------------------------------------|
D|---------------------------------------------------------------------------|
A|---------------------------------------------------------------------------|
E|---------------------------------------------------------------------------|

           D                  A        G
If I drift ou ou ou ou out in channels way too deep
           Bm                         F#m       G
It's cause I can't stand the shifting sands and shells under our feet

         D                  A          G
Put your suitcase dow ow ow ow own and leave your shoes

Bm                F#m     G                          Em   G
Gently by the door   in a huddle with your boots


D                                G 
When I learned to walk, you know humans roamed the earth
Em                              G
I can't hold my breath anymore, I stopped sinking and learned to surf
D                                  G 
And when I learned to talk I found words that weren't worth dirt
Em                              G
I can't hold my breath anymore, I stopped swimming and learned to surf



| /  slide up
| \  slide down
| h  hammer-on
| p  pull-off
| ~  vibrato
| +  harmonic
| x  Mute note
===============================================================================
            
Submit corrections

comments powered by Disqus
↑ Back to top | Superchunk Tabs for Learned To Surf. Lyrics for acoustic guitar and electric guitar. 1 Tablatures and chords are parodies/interpretations of the original songs. You may use it for private study, scholarship, research or language learning purposes only