» » »

Slack Motherfucker Bass tabs (ver.1)

Artists:  A B C D E F G H I J K L M N O P Q R S T U V W X Y Z # 

Slack Motherfucker Bass tabs (ver.1)

Superchunk
Rating:
0/5 (0 votes)

Hard to play? Try these video lessons and learn fast.
                #------------------------------------------------------------------------------##


This tab is about 90-100% correct.
In some parts the number of of times you hit the note is not correct
but its close and you can figure it out.It's a real simple song that kicks ass.


Intro/Chorus x2

G------------------------------------------------------------------------|
D------------------------------------------------------------------------|
A-77-777--66-666--99-999-12-12-121212------------------------------------|
E------------------------------------------------------------------------|

Verse 1 x2

G--------------------------------|
D--------------------------------|
A--77-77--22-222--------555555---|
E-----------------55-55----------|

Intro/Chorus x2

Verse 2 x2

G----------------------------------------------------------|
D----------------------------------------------------------|
A--7--3--2-2222----7--3--2-2222--7--3-2-2222---------------|
E---------------------------------------------5555-7777----|

Intro/Chorus x2
Verse 1 x2
Intro/Chorus x2
Verse 2 x2
Solo

G-----------------I      G--------------------------|I
D-----------------I      D--------------------------|I
A----7777--5555---I x 4  A-5555--7777---------I x 4-|
E-----------------I      E--------------------------|I
Verse 2 X 2
            
Hard to play? Try these video lessons and learn fast. | Correct




comments powered by Disqus
↑ Back to top | Tablatures and chords are parodies/interpretations of the original songs. You may use it for private study, scholarship, research or language learning purposes only