» » »

Sungha Jung, My Heart Will Go On Tabs (ver.3)

Artists:  A B C D E F G H I J K L M N O P Q R S T U V W X Y Z # 

My Heart Will Go On Tabs (ver.3)

Sungha Jung Tabs
Rating:
0/5 (0 votes)
My Heart Will Go On lessons Tabs too difficult? Try these video lessons and learn fast
                This is not as Sungha play but this version sounds exactly like Sungha's.
You need a capo on the 5 freth to make it sound like Sungha.
This is done by ear. This tab is not 100% correct so you should listen to Sungha Jungs 
version first and then play along.
I hope this helped please rate the tab please :)

Intro:

-------------------------------------------------------------/
-------------------------------------------------------------/
------------------0------------------------------0---0-2-0---/
---0-0-2--3-2-0--0---3-2-0--------0-0-2--3-2-0--0---2------0-/
-3--------------3----------3----3--------------3-------------/
----------------------------3--------------------------------/


Verse1:

---------------------0-1-0-------------------1-3-/
-1--1-1--1-0-1-1-0-1-3----3--1--1-1--1-0-1-3-1-0-/
-0--0-0--0-0-0-0-2-2-2-------0--0-0--0-0-0-0-2-0-/
-2--2-2--2-2-2-2-3-3-3-------2--2-2--2-2-2-2-3-0-/X2
-3--3-3--3-3-3-3-------------3--3-3--3-3-3-3-3-2-/
---------------------------------------------1-3-/


Chorus:

---------------------3-1-0---0-1-----------------0-0-1-0--/
-------1-3--1--1-3-3-1-1-1-3-----1-3-1-0-1-0-0-1-0------3-/
-0-2-4------2--2-0-0-2-2-2-0-----2-2-2-0-0-0-2-2-0--------/
------------2--2-0-0-3-3-3-0-----2-2-2-0-0-0-3-3----------/
------------0--0-2-2-------2-----0-0-0--------------------/
----------------------------------------------------------/

Intro again:
-------------------------------------------------------------/
-------------------------------------------------------------/
------------------0------------------------------0---0-2-0---/
---0-0-2--3-2-0--0---3-2-0--------0-0-2--3-2-0--0---2------0-/
-3--------------3----------3----3--------------3-------------/
----------------------------3--------------------------------/


Verse2:

---------------------0-1-0-------------------1-3-/
-1--1-1--1-0-1-1-0-1-3----3--1--1-1--1-0-1-3-1-0-/
-0--0-0--0-0-0-0-2-2-2-------0--0-0--0-0-0-0-2-0-/
-2--2-2--2-2-2-2-3-3-3-------2--2-2--2-2-2-2-3-0-/X2
-3--3-3--3-3-3-3-------------3--3-3--3-3-3-3-3-2-/
---------------------------------------------1-3-/


And then it goes on like that. But please listen to Sungha Jungs version it helps. :)
            

comments powered by Disqus
↑ Back to top | Sungha Jung Tabs for My Heart Will Go On. Lyrics for acoustic guitar and electric guitar. Tablatures and chords are parodies/interpretations of the original songs. You may use it for private study, scholarship, research or language learning purposes only