» » »

Suicidal Tendencies, Trip At The Brain Tabs (ver.1)

Artists:  A B C D E F G H I J K L M N O P Q R S T U V W X Y Z # 

Trip At The Brain Tabs (ver.1)

Suicidal Tendencies Tabs
 Rating:
4/5 (4 votes)
Trip At The Brain lessons Tabs too difficult? Try these video lessons and learn fast
                Suicidal Tendencies - Trip at the brain

As usual if there is any timing here it is probably wrong
I make no guarantees that this is 100% correct 
but it sounds good to me

A-------5-----7-----8-----7---5/7-----5---7--8\7---5/7-5/7----------
E---0-0-3-0-0-5-0-0-6-0-0-5-0-3/5---0-3-0-5--6\5-x-3/5-3/5----------

this next bit is an alternate ending to the above riff
D--------------------------------------------12\11---9--10----------
A--------------------------------------------10\9--x-7-x-8----------

D---------5-4/5---------5-7/8---------5-4/5---------8-7\5-----------
A---------5-4/5---------5-7/8---------5-4/5---------8-7\5-----------
E---0-000-3-2/3---0-000-3-5/6---0-000-3-2/3---0-000-6-5\3-----------

g---------5--------------------------------------3------------------
D---5--2--5---------5-4/5---------5-7/8----5--2--3------------------
A---5--2--3---------5-4/5---------5-7/8----5--2--1------------------
E---3--0------0-000-3-2/3---0-000-3-5/6----3--0---------------------

g---5---2---4-------------------------------------------------------
D---5---2---4---5-4-2-----------------------------------------------
A---3---0---2---5-4-2-----2-----2-----2-----------------------------
E---------------3-2-0-0-0-0-0-0-0-0-0-0-0-0-------------------------
                     |---------------------|
 for 2 bars in there somewhere he does this without the marked bit

this fast bit here is a bit iffy
D---5-5-5-5-2-2-4-4-4-4---4-5-4-------------------------------------
A---3-3-3-3-0-0-2-2-2-2-x-2-5-4-2-2-2-2-2-2-2-2-2-2-2-2-2-2-2-2-----
E---------------------------3-2-0-0-0-0-0-0-0-0-0-0-0-0-0-0-0-0-----

Matthew Johnson.
            
Submit corrections

comments powered by Disqus
↑ Back to top | Suicidal Tendencies Tabs for Trip At The Brain. Lyrics for acoustic guitar and electric guitar. Tablatures and chords are parodies/interpretations of the original songs. You may use it for private study, scholarship, research or language learning purposes only