» » »

Suicidal Tendencies, Subliminal Tabs (ver.1)

Artists:  A B C D E F G H I J K L M N O P Q R S T U V W X Y Z # 

Subliminal Tabs (ver.1)

Suicidal Tendencies Tabs
Rating:
0/5 (0 votes)
Subliminal lessons Tabs too difficult? Try these video lessons and learn fast
                Subliminal by Suicidal Tendencies

Drop D Half Step

x Vers x

E|-------------------------------|
B|-------------------------------|
G|-------------------------------|
D| 2-2--5-5-5--4-4-4--3-3-3-|
A| 2-2--5-5-5--4-4-4--3-3-3-|      x 4
D| 2-2--5-5-5--4-4-4--3-3-3-|  

E|-------------------------------------------|
B|-------------------------------------------|
G|-------------------------------------------|
D| --2-2-2--5--2-2-2--5--4-4-4--3-3-3-|
A| --2-2-2--5--2-2-2--5--4-4-4--3-3-3-|   x 2
D| --2-2-2--5--2-2-2--5--4-4-4--3-3-3-|
        .  .  .        .  .  .

E|-------------------------------|
B|-------------------------------|
G|-------------------------------|
D| 2-2--5-5-5--4-4-4--3-3-3-|
A| 2-2--5-5-5--4-4-4--3-3-3-|      x 2
D| 2-2--5-5-5--4-4-4--3-3-3-|  
     
 x Chours x
E|----------------------|
B|----------------------|
G|----------------------|
D|-2-2-2-2--4-4-5-5-|
A|-2-2-2-2--4-4-5-5-|
D|-2-2-2-2--4-4-5-5-|   x 4

E|----------------------|
B|----------------------|
G|----------------------|
D|--2-5-2-5-2-5-2-5-|
A|--2-5-2-5-2-5-2-5-|
D|--2-5-2-5-2-5-2-5-|

E|----------------------|
B|----------------------|
G|----------------------|
D|-2-2-2-2--4-4-5-5-|
A|-2-2-2-2--4-4-5-5-|
D|-2-2-2-2--4-4-5-5-|   x 4

E|----------------------|
B|----------------------|
G|----------------------|
D|--2-5-2-5-2-5-2-5-|
A|--2-5-2-5-2-5-2-5-|
D|--2-5-2-5-2-5-2-5-|

E|----------------------|
B|----------------------|
G|----------------------|
D|-2-2-2-2--4-4-5-5-|
A|-2-2-2-2--4-4-5-5-|
D|-2-2-2-2--4-4-5-5-|   x 4     

  x Vers x
E|-------------------------------|
B|-------------------------------|
G|------------------------------^-|
D| 2-2--5-5-5--4-4-4--3-3-3-|
A| 2-2--5-5-5--4-4-4--3-3-3-|      x 2
D| 2-2--5-5-5--4-4-4--3-3-3-|  

E|--------------------------------|
B|--------------------------------|
G|--------------------------------|
D| 2-2--5-5-5--4-4-4--3-3-3-|
A| 2-2--5-5-5--4-4-4--3-3-3-|      x 2
D| 2-2--5-5-5--4-4-4--3-3-3-|  

E|-------------------------------------------|
B|-------------------------------------------|
G|-------------------------------------------|
D| --2-2-2--5--2-2-2--5--4-4-4--3-3-3-|
A| --2-2-2--5--2-2-2--5--4-4-4--3-3-3-|   x 2
D| --2-2-2--5--2-2-2--5--4-4-4--3-3-3-|
        .  .  .        .  .  .

E|--------------------------------|
B|--------------------------------|
G|--------------------------------|
D| 2-2--5-5-5--4-4-4--3-3-3-|
A| 2-2--5-5-5--4-4-4--3-3-3-|      x 2
D| 2-2--5-5-5--4-4-4--3-3-3-|  

 x Chours x
E|----------------------|
B|----------------------|
G|----------------------|
D|-2-2-2-2--4-4-5-5-|
A|-2-2-2-2--4-4-5-5-|
D|-2-2-2-2--4-4-5-5-|   x 4

E|----------------------|
B|----------------------|
G|----------------------|
D|--2-5-2-5-2-5-2-5-|
A|--2-5-2-5-2-5-2-5-|
D|--2-5-2-5-2-5-2-5-|

E|----------------------|
B|----------------------|
G|----------------------|
D|-2-2-2-2--4-4-5-5-|
A|-2-2-2-2--4-4-5-5-|
D|-2-2-2-2--4-4-5-5-|   x 4

E|----------------------|
B|----------------------|
G|----------------------|
D|--2-5-2-5-2-5-2-5-|
A|--2-5-2-5-2-5-2-5-|
D|--2-5-2-5-2-5-2-5-|

E|----------------------|
B|----------------------|
G|----------------------|
D|-2-2-2-2--4-4-5-5-|
A|-2-2-2-2--4-4-5-5-|
D|-2-2-2-2--4-4-5-5-|   x 4     

x Vers x

E|-------------------------------|
B|-------------------------------|
G|-------------------------------|
D| 2-2--5-5-5--4-4-4--3-3-3-|
A| 2-2--5-5-5--4-4-4--3-3-3-|      x 4
D| 2-2--5-5-5--4-4-4--3-3-3-|  

E|-------------------------------------------|
B|-------------------------------------------|
G|-------------------------------------------|
D| --2-2-2--5--2-2-2--5--4-4-4--3-3-3-|
A| --2-2-2--5--2-2-2--5--4-4-4--3-3-3-|   x 2
D| --2-2-2--5--2-2-2--5--4-4-4--3-3-3-|
        .  .  .        .  .  .

E|-------------------------------|
B|-------------------------------|
G|-------------------------------|
D| 2-2--5-5-5--4-4-4--3-3-3-|
A| 2-2--5-5-5--4-4-4--3-3-3-|      x 2
D| 2-2--5-5-5--4-4-4--3-3-3-|  
     
End on

E|------|
B|------|
G|------|
D|--2--|
A|--2--|
D|--2--|
            
Submit corrections

comments powered by Disqus
↑ Back to top | Suicidal Tendencies Tabs for Subliminal. Lyrics for acoustic guitar and electric guitar. Tablatures and chords are parodies/interpretations of the original songs. You may use it for private study, scholarship, research or language learning purposes only