» » »

No Fuckingproblem Tabs (ver.2)

Artists:  A B C D E F G H I J K L M N O P Q R S T U V W X Y Z # 

No Fuckingproblem Tabs (ver.2)

Suicidal Tendencies
Rating:
0/5 (0 votes)

Hard to play? Try these video lessons and learn fast.
                                         SUICIDAL TENDENCIES  NO f**kING PROBLEM
                         From the Album       SUICIDAL FOR LIFE
                         Copyright 1994 EPIC/SONY 
                      
                            Version 2.0 - AUGUST 1999
For Questions, Comments, Newest Version, or Corrections contact
Check Out 's Web Page, With More Transcriptions On It:
               
join the death/black tab emailing list by emailing 
.  - palm mute                    /  - slide up to
\  - slide down to                ~  - vibrato             
h  - hammer on                    b  - bend 
p  - pull off                          Suffixes for bend    
ph - pinch harmonic                        f - full bend    h - half bend
*  - see comment                           r - release      t - tap bend
X  - percussion mute                       ~ - vibrato bend
@  - slight palm mute             () - ghost note, sustained note
"  - tremolo pick until next note

 STANDARD TUNING
|------|
|------|
|------|
|------|
|------|
|-12\--|

 RIFF 1		PLAY 8 TIMES
|---------------------------------------|
|---------------------------------------|
|------------------2--2-2---------------|
|--2---/9----------2--2-2--/7--5H7------|
|--2---/7--5H7-----0--0-0----------8~\--|
|--0-----------8~-----------------------|
 
 RIFF 2		PLAY 4 TIMES
|-----------------------------|
|-----------------------------|
|--------2--2-2---------------|
|-2-2----2--2-2------5-----3--|
|-2-2----0--0-0------5-----3--|
|-0-0--------------3-3---1-1--|
	           .     .
 PLAY RIFF 1.A  4 TIMES
 PLAY RIFF 2    4 TIMES 
 RIFF 3                * These are 1's not 11's
|-----------------------------------------------------------|
|-----------------------------------------------------------|
|-------------------------------------------------9-9/10\9--|
|-------7/9-10-----------------5-5--7-7/9-9/12--------------|
|-2-2-----------------*---------------------------7-7/-8\7--|
|-0-0---5/7-8---0-1-3-11-0-1---3-3--5-5/7-7/10--------------|
                . . . .. . .
|-----------------------------------------------------------|
|-----------------------------------------------------------|
|-------------------------------------------------9-10/12---|
|------------------------------5-5--7-7/9-9/12--------------|
|-2--9-7/9-10---------*---------------------------7--8/10---|
|-0--7-5/7--8---0-1-3-11-0-1---3-3--5-5/7-7/10--------------|
                . . . .. . .

 PLAY RIFF 2  4 TIMES

 RIFF 4   UNDER SOLO 
|--------------------------------------------|
|--------------------------------------------|
|-----------------------------------------/9-|
|----------------------------5-5--/9-/11-----|
|-4--4--4-4-5-----------------------------/7-|
|-2--2--2-2-3--2-3-5-3-2-3---3-3--/7-/9------|
 


 RIFF 5 UNDER SOLO
|---------0-----------0-----------------------------|
|-----------0-----------0---------------------------|
|-----4------------4--------------------------------|
|---4------------4----------------------------------|
|-2------------0------------------------------------|
|---------------------------2-2-2-2-2-0-2-3--2-3-5--|
			
 RIFF 6   		   
|----------------------------------|
|----------------------------------|
|----------------------------------|
|--------3----------3-----3/4-3----|
|-2-2-2--1---2-2-2--1-----1/2-1----|
|-0-0-0------0-0-0-----0-----------|
 
 RIFF 1.A   PLAY 4 TIMES
|------------------------------------|
|------------------------------------|
|------------------------------------|
|-2-2-------------2-2-2--55-5h7------|
|-2-2--7--5h7-----0-0-0---------8~\--|
|-0-0---------8\---------------------|


 PLAY RIFF 2  4 TIMES
  
 RIFF 7
|----------------------------------------------------------|
|----------------------------------------------------------|
|----------------------------------------------------------|
|------2---------------------------------------------------|
|-2--2---2----------*---------------0-2-5--5-5-3-5p3---3-5-|
|-0--------1--0-1-3-11-0-1---3333-3------------------5-----|
              . . . .. . . 
|-----------------------------------------------------|
|-----------------------------------------------------|
|-----------------------------------------------------|
|------2--------------------------------3--5P3--------|
|-2--2---2----------*-------------0-2-5--------5------|
|-0--------1--0-1-3-11-0-1---3333----------------1-3--|
              . . . .. . . 
 Play 2 Times
|--------------------------------------------------------|
|--------------------------------------------------------|
|----------------------------------------------9-9/10\9--|
|------2--------------------5-5-5--7-7/9-9/12------------|
|-2--2---2----------*--------------------------7-7/-8\7--|
|-0--------1--0-1-3-11-0-1--3-3-3--5-5/7-7/10------------|
              . . . .. . . 

 PLAY RIFF 2  4 TIMES W/FILL 1
 
 FILL 1
|--------------|
|--------------|
|--------------|
|----------7\--|
|-2----5---7\--|
|-0----3---5\--|



 version 2.0 - corrected riffs 1,1.a,4,5,6,7
            
Hard to play? Try these video lessons and learn fast. | Correct




comments powered by Disqus
↑ Back to top | Tablatures and chords are parodies/interpretations of the original songs. You may use it for private study, scholarship, research or language learning purposes only