>
 >
Nobody Hears 1

Nobody Hears 1 Guitar Tabs

Suicidal Tendencies - Nobody Hears 1 chords, tabs, tablatures, lyrics

Guitar lessons | Add/correct | Request | Top 50 tabs Artists:  A B C D E F G H I J K L M N O P Q R S T U V W X Y Z 0-9

Nobody Hears 1 Guitar Tabs – Suicidal Tendencies

CD, Sheet music, Poster

Do you like Nobody Hears 1? Share with your friends now
TabsTabs v2
---------------------------------------------------------------------------
                      NOBODY HEARS - Suicidal Tendencies
---------------------------------------------------------------------------

Tuning: E standard

Intro
   Em         C             A5            Bb H  G  E
e|------------------------------------------------------------------------|
B|---12----------12-------------------------------------------------------|
G|------12-9-12~----12-9-12-11~-9~----------------------------------------|
D|------------------------------------------------------------------------|
A|------------------------------------------------------------------------|
E|-0----------------------------------------------------------------------|

   Em        C             A     Bb H  G   E
e|----------------------------------------17/19~--------------------------|
B|--12----------12---------15~------17-20---------------------------------|
G|-----12-9-12~----12-9-12-------19---------------------------------------|
D|------------------------------------------------------------------------|
A|------------------------------------------------------------------------|
E|-0----------------------------------------------------------------------|

Let ring E powerchord and 17th fret on B string

Verse
  Em               C                Am            Bb B G E
e|-----------0--------------0---------------------------------------------|
B|---------0---0----------0---0-------------------------------------------|
G|-------9-------9------5-------5---2---7-----5~--------------------------|
D|-----9--------------5-----------5-2---7-----7~--3--4--------------------|
A|---7--------------3---------------0-0---0-0-----1--2-5------------------|
E|-0---------------------------------------------------3-0----------------|

0:40
   G   F      E    BbB G E
e|--------------0---------------------------------------------------------|
B|--------------0---------------------------------------------------------|
G|----------------------------------REPEAT--------------------------------|
D|-----------------3-4----------------------------------------------------|
A|-5---3------2----1-2-5-2------------------------------------------------|
E|-3---1------0--------3-0------------------------------------------------|

Verse again

Pre-Chorus (play each chord twice)
   F/A         Bsomething   Amajorsomething Csomething
e|---------0-----------0------------0----------------0--------------------|
B|-------0---0-------0---0--------0---0------------0---0------------------|
G|-----9-----------8------------6----------------5------------------------|
D|---7-----------9------------7----------------2--------------------------|
A|-8-----------9------------7----------------3----------------------------|
E|------------------------------------------------------------------------|

Chorus
e|------------------------------------------------------------------------|
B|------------------------------------------------------------------------|
G|------------------------------------------AND-SO-ON---------------------|
D|-----7-5-4-5-5----------------------------------------------------------|
A|-2---5-3-2-3-3---2---7-5-4-5-5---2--------------------------------------|
E|-0-------------0-0---5-3-2-3-3-0-0--------------------------------------|

---
Intro leads again, ending bit different..

Verse
---


2:19 

e|---------0---------------------------------------------------------------|
B|-------0---0-------------------------------------------------------------|
G|-----9-------9----------------------------REPEAT-------------------------|
D|---7-----------7--------3-4----------------------------------------------|
A|-8---------------8---2--1-2-5-2------------------------------------------|
E|---------------------0------3-0------------------------------------------|

---
Pre-Chorus

Chorus
---

Guitar solo played over
   C#  C#/B  D    E                  G#m H  D
e|------------------------------|  |--------------------------------------|
B|------------------------------|  |--------------------------------------|
G|-6---6-----7------------------|X2|-4---4--7-----------------------------|X2
D|-6---6-----7------------------|  |-6---4--7-----------------------------|
A|-4---2-----5----2------5-7-2--|  |-6---2--5--2------5-7-2---------------|
E|----------------0--5-7-----0--|  |-4---------0--5-7-----0---------------|

Same chord progression over the
"so if its how I live cause I"
or whatever, as guitar solo first section

Pre-Chorus

Chorus

Improvise around the intro leads over the chorus as it fades out

Thats it!


| /  slide up
| \  slide down
| h  hammer-on
| p  pull-off
| ~  vibrato
| +  harmonic
| x  Mute note
=====================================================================





Comments


Popular Suicidal Tendencies tabs & chords
Accept My Sacrifice Bass Tabs
Looking In Your Eyes 1 Bass Tabs
Naked 1 Bass Tabs
Cyco Vision 1 Tabs
Disco's Out, Murder's In Tabs
Heaven Rhythm Guitar Tabs
Institutionalized 4 Tabs
One Too Many Times 1 Tabs
Wont Fall In Love Today Tabs
You Can't Bring Me Down 1 Tabs


Song lyrics



↑ Back to top | Tablatures and chords are parodies/interpretations of the original songs. You may use it for private study, scholarship, research or language learning purposes only
© 2014 AZChords.com Contact us | Privacy policy | DMCA | Add/correct tabs | Request tabs | Top 50 tabs