>
 >
Heaven Rhythm Guitar

Heaven Rhythm Guitar Guitar Tabs

Suicidal Tendencies - Heaven Rhythm Guitar chords, tabs, tablatures, lyrics

Guitar lessons | Add/correct | Request | Top 50 tabs Artists:  A B C D E F G H I J K L M N O P Q R S T U V W X Y Z 0-9

Heaven Rhythm Guitar Guitar Tabs – Suicidal Tendencies

CD, Sheet music, Poster

Do you like Heaven Rhythm Guitar? Share with your friends now
Tabs
A very good song from the album which also contains 'Cyco Vision'
(you might recognize it from the Tony Hawk's Pro Skater music).
Couldn't find a tab of it anywhere so here's my attempt.


Riff 1

Play this over and over. 0:00 - 1:39, 1:50 - 2:23, and again at 3:50 - 4:13

          ^  +  ^   +  ^                        +  ^  +  ^
e|---------0--0--0---0--0------------------------0--0--0--0---------
b|---------0--0--0---0--0------------------------0--0--0--0---------
g|---------0--0--0---0--0---2h4--5--4--2-----2---2--2--2--2---------
d|---------0--0--0---0--0---2-------------2--3---3--3--3--3---------
a|---------2--2--2------2-------------------------------------------
E|---0-----0--0--0------0-------------------------------------------

That's the intro for guitar 1, listen for rhythm, appergiate chords slightly.

^ =  play a down stroke

+ = play an up stroke





I tabbed the rest of what he left out.



Riff 2

This riff is played during 1:40 - 1:50 (2x), 2:24 - 2:44 (4x) and again at 3:30 - 3:50(4x)

e|----------------------------
b|----------------------------
g|---2-2-2-------5-5-5-7-7----
d|---2-2-2--3----5-5-5-7-7-5--
a|---0-0-0--3----3-3-3-5-5-5--
E|----------1--------------3-- 

Or you can play it this way. It sounds the same. Whatever is easier for you.

e|--------------------------------
b|--------------------------------
g|--------------------------------
d|---5-5-5--3---10-10-10-12-12-5--
a|---5-5-5--3---10-10-10-12-12-5--
E|---3-3-3--1----8--8--8-10-10-3--



Riff 3

This riff is played during 2:45 - 3:05 

e|--------------------------------
b|--------------------------------
g|---2-2-2-5-5-5------------------
d|---2-2-2-5-5-5-5-5-5-3-3-3------
a|---0-0-0-3-3-3-5-5-5-3-3-3------
E|---------------3-3-3-1-1-1------

e|---------------------------------
b|---------------------------------
g|---2-2-2-5-5-5-------------------
d|---2-2-2-5-5-5-12-12-12-10-10-10-
a|---0-0-0-3-3-3-12-12-12-10-10-10-
E|---------------10-10-10--8--8--8-

e|--------------------------------
b|--------------------------------
g|---2-2-2-5-5-5------------------
d|---2-2-2-5-5-5-5-5-5-3-3-3------
a|---0-0-0-3-3-3-5-5-5-3-3-3------
E|---------------3-3-3-1-1-1------

e|--------------------------------
b|--------------------------------
g|---2-2-2-5-5-5------------------
d|---2-2-2-5-5-5-5-5-5-3-3-3------
a|---0-0-0-3-3-3-5-5-5-3-3-3------
E|---------------3-3-3-1-1-1------


Or you can play it this way. It sounds the same. Whatever is easier for you.

e|-----------------------------------
b|-----------------------------------
g|-----------------------------------
d|---7-7-7-10-10-10-5-5-5-3-3-3------
a|---7-7-7-10-10-10-5-5-5-3-3-3------
E|---5-5-5--8--8--8-3-3-3-1-1-1------

e|-----------------------------------
b|-----------------------------------
g|-----------------------------------
d|---7-7-7-10-10-10-17-17-17-15-15---
a|---7-7-7-10-10-10-17-17-17-15-15---
E|---5-5-5--8--8--8-15-15-15-13-13---

e|-----------------------------------
b|-----------------------------------
g|-----------------------------------
d|---7-7-7-10-10-10-5-5-5-3-3-3------
a|---7-7-7-10-10-10-5-5-5-3-3-3------
E|---5-5-5--8--8--8-3-3-3-1-1-1------

e|-----------------------------------
b|-----------------------------------
g|-----------------------------------
d|---7-7-7-10-10-10-5-5-5-3-3-3------
a|---7-7-7-10-10-10-5-5-5-3-3-3------
E|---5-5-5--8--8--8-3-3-3-1-1-1------


Riff 4 

This riff is played during 3:07 - 3:27

3:07 - 3:14
e|-----------------------------------
b|-----------------------------------
g|---2-5-5/7-5-4---------------------
d|---2-5-5/7-5-4-5-8-8/10-8-5--------
a|---0-3-3/5-3-2-5-8-8/10-8-5--------
E|---------------3-6-6/8--6-3--------

Or you can play it this way. It sounds the same. Whatever is easier for you.

e|-----------------------------------
b|-----------------------------------
g|-----------------------------------
d|--7-10-10/12-10-9-5-8-8/10-8-5-----
a|--7-10-10/12-10-9-5-8-8/10-8-5-----
E|--5--8--8/10--8-7-3-6-6/8--6-3-----

3:15 - 3:18
Palm Mute
e|-----------------------------------
b|-----------------------------------
g|-----------------------------------
d|---5-5-5-5-5-5-5-3-3-3-3-3-3-3-----
a|---5-5-5-5-5-5-5-3-3-3-3-3-3-3-----
E|---3-3-3-3-3-3-3-1-1-1-1-1-1-1-----

3:18 - 3:24
e|-----------------------------------
b|-----------------------------------
g|---2-5-5/7-5-4---------------------
d|---2-5-5/7-5-4-5-8-8/10-8-5--------
a|---0-3-3/5-3-2-5-8-8/10-8-5--------
E|---------------3-6-6/8--6-3--------

Or you can play it this way. It sounds the same. Whatever is easier for you.

e|-----------------------------------
b|-----------------------------------
g|-----------------------------------
d|--7-10-10/12-10-9-5-8-8/10-8-5-----
a|--7-10-10/12-10-9-5-8-8/10-8-5-----
E|--5--8--8/10--8-7-3-6-6/8--6-3-----

3:26-3:29
Palm Mute
e|-----------------------------------
b|-----------------------------------
g|-----------------------------------
d|---5-5-5-5-5-5-5-3-3-3-3-3-3-3-----
a|---5-5-5-5-5-5-5-3-3-3-3-3-3-3-----
E|---3-3-3-3-3-3-3-1-1-1-1-1-1-1-----


Time Placement
Riff 1 0:00 - 1:39

Riff 2 1:40 - 1:50 (2x)

Riff 1 1:50 - 2:23 

Riff 2 2:24 - 2:44 (4x)

Riff 3 2:45 - 3:05

Riff 4 3:07 - 3:27

Riff 2 3:30 - 3:50 (4x)

Riff 1 3:50 - 4:13


I lined it up all evenly but it still might show up with extra dashes, just disregard those.

Riff 4 is the only Riff that I'm skeptical about. It sounds like that is what is being played, but I'm just not 100% sure on it.

I'll try to tab out the lead guitar as soon as possible. 

Well, I hope this helped anyone out who has been looking for a tab of this. Rock on!





Comments


Popular Suicidal Tendencies tabs & chords
Institutionalized 1 Bass Tabs
Can't Stop Tabs
Choosing My Own Way Of Life Tabs
Disco's Out, Murder's In Tabs
Freedumb Tabs
Goin Breakdown 1 Tabs
If I Don't Wake Up 1 Tabs
Institutionalized 3 Tabs
Pledge Your Allegiance Tabs
The Miracle Tabs


Song lyrics



↑ Back to top | Tablatures and chords are parodies/interpretations of the original songs. You may use it for private study, scholarship, research or language learning purposes only
© 2014 AZChords.com Contact us | Privacy policy | DMCA | Add/correct tabs | Request tabs | Top 50 tabs