>
 >
Get Whacked

Get Whacked Guitar Tabs

Suicidal Tendencies - Get Whacked chords, tabs, tablatures, lyrics

Guitar lessons | Add/correct | Request | Top 50 tabs Artists:  A B C D E F G H I J K L M N O P Q R S T U V W X Y Z 0-9

Get Whacked Guitar Tabs – Suicidal Tendencies

CD, Sheet music, Poster

Do you like Get Whacked? Share with your friends now
TabsTabs v2
Band:  Suicidal Tendencies

Copyright (c)  (Epic) (1990)
Version 1.0 - (05/05/05)



.  - palm mute           /  - slide up to
\  - slide down to       ~  - vibrato
h  - hammer on           b  - Bend
p  - pull off            Suffixes for bend
t  - tap                 f  - full bend    h - half bend
ph - pinched harmonic    q  - quarter bend t - tap bend
*  - see comment         ^  - Hold bend    r release bend
x  - Stuccatto           ~  - vibrato bend
,  - slight palm mute    () - ghost note, sustained note
"  - tremolo note        <> - Trill

Tunning E A D G B E
 

 Orchestra tuning effects and fanfare.

 Intro / Main Riff

                                      [-----PM-----]
E-----------------------------------------------------|
B-----------------------------------------------------|
G---------------------3-2-0---0-----------------------|
D-2--------(2)--------3-2-0-3-0-3-2-0-3-2-0---0-------|
A-0--------(0)--------------3---3-2-0-3-2-0-3-0-3-2---|
E-------------------------------------------3---3-2---| Rpt 4 X

 Main / Verse Riff 

  Guitar 1
     [----------PM----------]                [-----PM-----]
E[-----------------------------------------------------------|
B[-----------------------------------------------------------|
G[---------------------------3-2-0---0-----------------------|
D[-2-------------------------3-2-0-3-0-3-2-0-3-2-0---0-------|
A[-0-0-0-0-0-0-0-0-0-0-0-0-0-------3---3-2-0-3-2-0-3-0-3-2---|
E[-------------------------------------------------3---3-2---|
 [
 [Guitar 2                                  [-----PM-----]
E[-----------------------------------------------------------|
B[---------------------------11108---8-----------------------|
G[---------------------------------10--109-7-109-7---7-------|
D[-------------------------------------------------10--109-7-|
A[-----------------------------------------------------------|
E[-----------------------------------------------------------| Rpt 3 X

  Guitar 1
     [----------PM----------]                [-----PM-----]
E[---------------------------------------------------------|
B[---------------------------------------------------------|
G[---------------------------3-2-0---3-2-0---3-2-0---0-----|
D[-2-------------------------3-2-0-3-3-2-0-3-3-2-0-3-0-3-2-|
A[-0-0-0-0-0-0-0-0-0-0-0-0-0-------3-------3-------3---3-2-|
E[---------------------------------------------------------|
 [
 [Guitar 2                                  [-----PM-----]
E[---------------------------------------------------------|
B[---------------------------11108---11108---11108---8-----|
G[---------------------------------10------10------10--109-|
D[---------------------------------------------------------|
A[---------------------------------------------------------|
E[---------------------------------------------------------| 


 Bridge

   [------PM-------]             [-------------PM------------]
E-------------------------------------------------------------|
B-------------------------------------------------------------|
G-----------------------0-----0-----------------------0-----0-|
D---------------------2-----4-----------------------2-----4---|
A-2-----------------3----/5-----5-----------------3----/5-----|
E-0-0-0-0-0-0-0-0-0-------------3-3-3-3-3-3-3-3-3-------------|

   [------PM-------]             [-----PM----]    [----PM----]
E-------------------------------------------------------------|
B-------------------------------------------------------------|
G-----------------------0-----0-----------------------0-----0-|
D---------------------2-----4-----------------------2-----4---|
A-2-----------------3----/5-----5-------------5-3-3----/5-----|
E-0-0-0-0-0-0-0-0-0-------------3-3-3-3-3-3-3-3\1-------------|


   [------PM-------]             [-------------PM------------]
E-------------------------------------------------------------|
B-------------------------------------------------------------|
G-----------------------0-----0-----------------------0-----0-|
D---------------------2-----4-----------------------2-----4---|
A-2-----------------3----/5-----5-----------------3----/5-----|
E-0-0-0-0-0-0-0-0-0-------------3-3-3-3-3-3-3-3-3-------------|

   [------PM-------]             [-----PM----]   [----PM---]
E-----------------------------------------------------------|
B-----------------------------------------------------------|
G-----------------------0-----0-----------------------------|
D---------------------2-----4-------------------------------|
A-2-----------------3----/5-----5---------------3-----------|
E-0-0-0-0-0-0-0-0-0-------------3-3-3-3-3-3-3-3\1-1-1-1-1-1-|

 Chorus

    [---PM---]    [---PM---]    [---PM---]    [---PM---]
E--------------------------------------------------------|
B--------------------------------------------------------|
G--------------------------------------------------------|
D-2-----------5-7----------/10-----------/8--------------|
A-0-0-0-0-0-0-3-5-5-5-5-5-5/8-10---------/6-8------------|
E-----------------------------8-8-8-8-8-8---6-6-6-6-6-6--| Rpt 4 X

E---|
B---|
G---|
D-2-|
A-0-|
E---|

 2nd Verse riffs

  Guitar 1
    [-PM--]  [PM]  h PM      h               [-----PM-----]
E[-----------------------------------------------------------|
B[-----------------------------------------------------------|
G[---------3-----0-2---2-0-2-3-2-0---0-----------------------|
D[-2-------3-----0-2---2-0-2-3-2-0-3-0-3-2-0-3-2-0---0-------|
A[-0-0-0-0---0-0-----0-------------3---3-2-0-3-2-0-3-0-3-2---|
E[-------------------------------------------------3---3-2---|
 [
 [Guitar 2                                   [-----PM-----]
E[-----------------------------------------------------------|
B[---------------------------11108---8-----------------------|
G[---------------------------------10--109-7-109-7---7-------|
D[-------------------------------------------------10--109-7-|
A[-----------------------------------------------------------|
E[-----------------------------------------------------------| Rpt 3 X

  Guitar 1
    [-PM--]  [PM]  h PM      h               [-----PM-----]
E[---------------------------------------------------------|
B[---------------------------------------------------------|
G[---------3-----0-2---2p0-2-3-2-0---3-2-0---3-2-0---0-----|
D[-2-------3-----0-2---2p0-2-3-2-0-3-3-2-0-3-3-2-0-3-0-3-2-|
A[-0-0-0-0---0-0-----0-------------3-------3-------3---3-2-|
E[---------------------------------------------------------|
 [
 [Guitar 2                                   [-----PM-----]
E[---------------------------------------------------------|
B[---------------------------11108---11108---11108---8-----|
G[---------------------------------10------10------10--109-|
D[---------------------------------------------------------|
A[---------------------------------------------------------|
E[---------------------------------------------------------|

 Rpt Bridge
 
 Backing for guitar solo.
   [-------PM------]             [-------PM------]
E-------------------------------------------------------------|
B-------------------------------------------------------------|
G-------------------------------------------------------------|
D-2-----------------3-2p0---0---4-----------------3-2p0---0---|
A-0-0-0-0-0-0-0-0-0-------3---3-2-2-2-2-2-2-2-2-2-------3---3-|
E-------------------------------------------------------------|
   [-------PM------]             [--PM-] [PM]  PM
E------------------------------------------------------|
B------------------------------------------------------|
G---------------------------------------5-----5---5/7--|
D-3-----------------3-2p0---0---2-------5-----5---5/7--|
A-1-1-1-1-1-1-1-1-1-------3---3-0-0-0-0---0-0---0------|
E------------------------------------------------------|

 Rpt above riffs.
   [-------PM------]             [-------PM------]
E-------------------------------------------------------------|
B-------------------------------------------------------------|
G-------------------------------------------------------------|
D-------------------------------------------------------------|
A-2-----------------3-2p0---0---4-----------------3-2p0---0---|
E-0-0-0-0-0-0-0-0-0-------3---3-2-2-2-2-2-2-2-2-2-------3---3-|
   [-------PM------]             [--PM-] [PM]  PM
E------------------------------------------------------|
B------------------------------------------------------|
G------------------------------------------------------|
D---------------------------------------5-----4---4-5--|
A-3-----------------3-2p0---0---2-------5-----5---5-5--|
E-1-1-1-1-1-1-1-1-1-------3---3-0-0-0-0---0-0---0------|

 Rpt above riffs

 Rpt Chorus
 Rpt 2nd Verse riffs
 Rpt Bridge
 Rpt Intro
 Rpt 1st Verse riffs

E---|
B---|
G---|
D-2-|
A-0-|
E---|



END





Comments


Popular Suicidal Tendencies tabs & chords
Half Way Up My Head 1 Bass Tabs
Hippie Killer Bass Tabs
Cyco Vision 2 Tabs
I Saw Your Mommy.. Tabs
Lovely Tabs
Possessed To Skate Tabs
Scream Out Tabs
Sorry Tabs
Suicidal Failure Tabs
War Inside My Head Tabs


Song lyrics



↑ Back to top | Tablatures and chords are parodies/interpretations of the original songs. You may use it for private study, scholarship, research or language learning purposes only
© 2014 AZChords.com Contact us | Privacy policy | DMCA | Add/correct tabs | Request tabs | Top 50 tabs