>
 >
Cyco Vision

Cyco Vision Guitar Tabs

Suicidal Tendencies - Cyco Vision chords, tabs, tablatures, lyrics

Guitar lessons | Add/correct | Request | Top 50 tabs Artists:  A B C D E F G H I J K L M N O P Q R S T U V W X Y Z 0-9

Cyco Vision Guitar Tabs – Suicidal Tendencies

CD, Sheet music, Poster

Do you like Cyco Vision? Share with your friends now
Bass TabsTabsTabs v2Tabs v3
#This OLGA file is the author's own work and represents their interpretation  #
#research. Remember to view this file in Courier, or some other monospaced    #



 > song : Cyco Vision
 > album : Freedumb, Six The Hard Way (EP)
 > artist : Suicidal Tendencies
 > written by : Mike Muir, Josh Paul, Mike Clark

 ---------------------------------------------------------------------
 Oh boy, I saw there was no tab from "Six The Hard Way" on the net, so
  I posted FREEDUMB and CYCO VISION... "New songs played the only way
   Suicidal knows how to play punk rock : the hard way !". These two
    songs kick ass, and they're pretty easy to play, so let's rock!
 ---------------------------------------------------------------------

 Guitars have a big disto tone, but does it need to be mentionned ? ;-)

 Tablature :
 -----3/5---- = slide up     --<<<<<<<5-- = volume fade in
 -----5\3---- = slide down   --5/\/\/\--- = tremolo
 ---x--x--x-- = muff         -15b(17)---- = bend whole step
 PM---------| = palm-mute    -15b(17)r15- = bend whole step and release

 ---------------------------------------------------------------------

 

      B5  E5/B B5 C5  F5/C C5 A5
 e-|--------------------------------------------------|
 B-|--------------------------------------------------|
 G-|--4--4--4--4--5--5--5--5--2--2--2--2--2--2--2--2--|
 D-|--4--4--2--4--5--5--3--5--2--2--2--2--2--2--2--2--|
 A-|--2--2--2--2--3--3--3--3--0--0--0--0--0--0--0--0--|
 E-|--------------------------------------------------|

 

     F#5 E5   F#5
 e-|--------------------------|
 B-|--------------------------|
 G-|--------------------------|
 D-|--4--2-----4--x--x--x--x--|
 A-|--4--2-----4--x--x--x--x--|
 E-|--2--0-----2--x--x--x--x--|

 

     F#5        C#5 D5 C#5 D5 E5
 e-|--------------------------------------------------|
 B-|--------------------------------------------------|
 G-|--------------6-/7--6-/7--------------------------|
 D-|--4--4-----4--6-/7--6-/7--2--2--2--2--2--2--2--2--|
 A-|--4--4-----4--4-/5--4-/5--2--2--2--2--2--2--2--2--|
 E-|--2--2-----2--------------0--0--0--0--0--0--0--0--|

 

     F#5 E5   F#5
 e-|---------------------------|
 B-|---------------------------|
 G-|---------------------------|
 D-|--4--2-----4--/--/-x-\--\--|
 A-|--4--2-----4--/--/-x-\--\--|
 E-|--2--0-----2--/--/-x-\--\--|

 

     F#5
 e-|-----------------------------|
 B-|-----------------------------|
 G-|-----------------------------|
 D-|--4--4--4--4--4--4--4--4--4--|
 A-|--4--4--4--4--4--4--4--4--4--|
 E-|--2--2--2--2--2--2--2--2--2--|
         PM-----------------|

 ---------------------------------------------------------------------
 Now here's the complete TAB song, with chords and lyrics...
 ---------------------------------------------------------------------

   |Gtr1.
 e-|--------------------------------------------------|
 B-|--<<<<<<<<<<5---/\/\/\/\/\/\/\/\/\/\/\/\/\/\/\/\--|
 G-|--------------------------------------------------|
 D-|--------------------------------------------------|
 A-|--------------------------------------------------|
 E-|--------------------------------------------------|
   |
   |Gtr2.
 e-|--------------------------------------------------|
 B-|--------------------------------------------------|
 G-|--------------------------------------------------|
 D-|--------------------------------------------------|
 A-|--------------------------------------------------|
 E-|--------------------------------------------------|


   |Gtr1.
 e-|--------------------------------------------------|
 B-|-------------------------------------------5/12---|
 G-|--------------------------------------------------|
 D-|--------------------------------------------------|
 A-|--------------------------------------------------|
 E-|--------------------------------------------------|
   |
   |Gtr2. (RIFF 1)
 e-|--------------------------------------------------|
 B-|--------------------------------------------------|
 G-|--4--4--4--4--5--5--5--5--2--2--2--2--2--2--2--2--|
 D-|--4--4--2--4--5--5--3--5--2--2--2--2--2--2--2--2--|
 A-|--2--2--2--2--3--3--3--3--0--0--0--0--0--0--0--0--|
 E-|--------------------------------------------------|


   |Gtr1.
 e-|--------------------------------------------------|
 B-|-(12)-/\/\/\/\/\/\/\/\/\/\/\/\/\/\/\/\/\/\/\/\/\--|
 G-|--------------------------------------------------|
 D-|--------------------------------------------------|
 A-|--------------------------------------------------|
 E-|--------------------------------------------------|
   |                                   These two times, one "alone",
   |Gtr2. (RIFF 1)                     another with drums roll...
 e-|--------------------------------------------------|
 B-|--------------------------------------------------|
 G-|--4--4--4--4--5--5--5--5--2--2--2--2--2--2--2--2--|
 D-|--4--4--2--4--5--5--3--5--2--2--2--2--2--2--2--2--|
 A-|--2--2--2--2--3--3--3--3--0--0--0--0--0--0--0--0--|
 E-|--------------------------------------------------|


   |Gtr1.
 e-|--------------------------------------------------|
 B-|-(12)-/\/\/\/\/\/\/\/\/\/\/\/\/\/\/\/\12///\\\\\--|
 G-|--------------------------------------------------|
 D-|--------------------------------------------------|
 A-|--------------------------------------------------|
 E-|--------------------------------------------------|
   |
   |Gtr2. (RIFF 1)
 e-|--------------------------------------------------|
 B-|--------------------------------------------------|
 G-|--4--4--4--4--5--5--5--5--2--2--2--2--2--2--2--2--|
 D-|--4--4--2--4--5--5--3--5--2--2--2--2--2--2--2--2--|
 A-|--2--2--2--2--3--3--3--3--0--0--0--0--0--0--0--0--|
 E-|--------------------------------------------------|

 RIFF 1 :

        B5  E5/B B5 C5  F5/C C5 A5

        B5  E5/B B5 C5  F5/C C5 A5
 'Cause I           GOT         cyco vision,   x4

 RIFF 2 (3x)
 RIFF 4 (1x)

 RIFF 3 :

 F#5        C#5 D5 C#5 D5 E5

 RIFF 2 :

    F#5 E5   F#5
 ...vision !
    F#5 E5   F#5
                   Cyco !
    F#5 E5   F#5

 RIFF 4:

    F#5 E5   F#5
                   Vision !

 RIFF 3 :

 F#5        C#5 D5 C#5 D5 E5

 RIFF 2 :

    F#5 E5   F#5
 ...vision !

 solo :

   |Gtr1.
 e-|-------15b(17)------------------------------------|
 B-|--------------------------13p15-13b(15)-----------|
 G-|--------------------------------------------------|
 D-|-------------------------------------------12-14--|
 A-|--------------------------------------------------|
 E-|--------------------------------------------------|
   |
   |Gtr2. (RIFF 1)
 e-|--------------------------------------------------|
 B-|--------------------------------------------------|
 G-|--4--4--4--4--5--5--5--5--2--2--2--2--2--2--2--2--|
 D-|--4--4--2--4--5--5--3--5--2--2--2--2--2--2--2--2--|
 A-|--2--2--2--2--3--3--3--3--0--0--0--0--0--0--0--0--|
 E-|--------------------------------------------------|


   |Gtr1.
 e-|--------------------------------------------------|
 B-|--------------------------------------------------|
 G-|-12b(14)------------------------------------------|
 D-|--------14---------------14\12p10h12--------------|
 A-|--------------------------------------------------|
 E-|--------------------------------------------------|
   |
   |Gtr2. (RIFF 1)
 e-|--------------------------------------------------|
 B-|--------------------------------------------------|
 G-|--4--4--4--4--5--5--5--5--2--2--2--2--2--2--2--2--|
 D-|--4--4--2--4--5--5--3--5--2--2--2--2--2--2--2--2--|
 A-|--2--2--2--2--3--3--3--3--0--0--0--0--0--0--0--0--|
 E-|--------------------------------------------------|
                                             But I...

   |Gtr1.
 e-|----------17---------17----------17----------17-15----------------|
 B-|-15b(17)-----15b(17)-----15b(17)-----15b(17)-------15b(17)r15-13--|
 G-|------------------------------------------------------------------|
 D-|------------------------------------------------------------------|
 A-|------------------------------------------------------------------|
 E-|------------------------------------------------------------------|
   |
   |Gtr2. (RIFF 1)
 e-|------------------------------------------------------------------|
 B-|------------------------------------------------------------------|
 G-|--4---4---4---4---5---5---5---5---2---2---2---2---2---2---2---2---|
 D-|--4---4---2---4---5---5---3---5---2---2---2---2---2---2---2---2---|
 A-|--2---2---2---2---3---3---3---3---0---0---0---0---0---0---0---0---|
 E-|------------------------------------------------------------------|
      got ...                         I  ...          Got  ...


   |Gtr1.
 e-|-----------------------------15b(17)/\/\/\/\/\/\--|
 B-|-15b(17)r15-13----15b(17)-13----------------------|
 G-|---------------14---------------------------------|
 D-|--------------------------------------------------|
 A-|--------------------------------------------------|
 E-|--------------------------------------------------|
   |
   |Gtr2. (RIFF 1)
 e-|--------------------------------------------------|
 B-|--------------------------------------------------|
 G-|--4--4--4--4--5--5--5--5--2--2--2--2--2--2--2--2--|
 D-|--4--4--2--4--5--5--3--5--2--2--2--2--2--2--2--2--|
 A-|--2--2--2--2--3--3--3--3--0--0--0--0--0--0--0--0--|
 E-|--------------------------------------------------|
      I  ...      Got   ...   AAAAHH !    HEY !

 RIFF 1 :

        B5  E5/B B5 C5  F5/C C5 A5   x4

 RIFF 2 (4x)

 RIFF 3 :

 F#5        C#5 D5 C#5 D5 E5

 RIFF 5 :

 F#5
 ...VISION !


 ----------------------------------------------------------------------
 Ok, I think everything is correct, but if you find an error, send me a
 correction, alright ?
 ----------------------------------------------------------------------
 HELP ! HELP ! HELP ! HELP ! HELP ! HELP ! HELP ! HELP ! HELP ! HELP !

 I'm desesperatly looking for the following tabs :

 SUICIDAL TENDENCIES - "Scream Out" (btab/crd)
      SHOOTYZ GROOVE - "Lillypad"   (tab)
        UGLY KID JOE - "Would You Like To Be There" (tab)
         STONY SLEEP - "She Had Me" (tab/crd)
           SEPULTURA - "Jasco" (tab)

 If you have of one them please post it to me, or tell me where I could
 find it, it'd be great... THANX !

 ------------------------------------------------------------------------

 Official SUICIDAL TENDENCIES site               SAVE THE PENGUINS by
F@B
 ------------------------------------------------------------------------





Comments


Popular Suicidal Tendencies tabs & chords
Built To Survive Bass Tabs
Looking In Your Eyes 1 Bass Tabs
Naked Bass Tabs
I Ain't Like You Tabs
I Saw Your Mommy Intro Tabs
I'll Hate You Better Tabs
One Too Many Times Tabs
Scream Out Tabs
Two Sided Politics Tabs
Waking The Dead 1 Tabs


Song lyrics



↑ Back to top | Tablatures and chords are parodies/interpretations of the original songs. You may use it for private study, scholarship, research or language learning purposes only
© 2014 AZChords.com Contact us | Privacy policy | DMCA | Add/correct tabs | Request tabs | Top 50 tabs