» » »

Gold Tabs (ver.1)

Artists:  A B C D E F G H I J K L M N O P Q R S T U V W X Y Z # 

Gold Tabs (ver.1)

Sugarcubes
Rating:
0/5 (0 votes)

Hard to play? Try these video lessons and learn fast.
                This is the first song off the sugarcubes 3rd album it's is played by John Mc
Geoch instead of Thor the iceland man.

intro riff (also played during solo)
e                                                     h=hammer on
    p=pulloff
b                                                     /=slide up
          \=slide down
g---2-----------------2---------2-------0:|        b=bend
d-2----------------2---------2--------2--:|
a0------0--0-h3-------4--------4-3----:|
e

crds(3 beats a measure)
|:A5    C5  D5\C5 C5   C5  B5/C5 A5:|   this is played over and over again.
 it's hard to understand, so listen to the tape to get it right.

e
b
g
d------------2-h4------------2h4p2:|
a------4-4---------------4-4---------:|
e2--2--------------2--2--------------:| sometimes after this is an F5 at fret
8
                      gold is the sweat...

solo:
e-----------------------------------------------------------------------------
-------------------
b

-16-h17--18-17-15--12b12------------------------------------------------------
----
g

--------------------------------------14--12--14b14--12--14-------------------
------
d-----------------------------------------------------------------------------
------------12----
a-------------------------------------------------------------------------12--
14--15---------
e-------------...

e-----------------------------------------------------------------------------
-----------------
b------------------------------------------------------13--13--13---12.12.12.1
3.13.13
g  --------14p12h14--p12----14-12-14-12--14--14--14---11.11.11.12.12.12
d

14----------------------------------------------------------------------------
--------------
a-----------------------------------------------------------------------------
------------------

e--------------------------------------17(infin.sustain)
b  --15b15--13--15b15--13-------
            
Hard to play? Try these video lessons and learn fast. | Correct




comments powered by Disqus
↑ Back to top | Tablatures and chords are parodies/interpretations of the original songs. You may use it for private study, scholarship, research or language learning purposes only