» » »

Sugar, Feeling Better Tabs (ver.2)

Artists:  A B C D E F G H I J K L M N O P Q R S T U V W X Y Z # 

Feeling Better Tabs (ver.2)

Sugar Tabs
Rating:
0/5 (0 votes)
Feeling Better lessons Tabs too difficult? Try these video lessons and learn fast
                Tab(correct version): "Feeling Better" by Sugar
Written by Bob Mould, (c)1993 Granary Music


Note:  This song is played with a capo on the 1st fret.
  The tab is transposed to reflect that.  
(i.e. a 1 on the B string will be C#, not C.  Get it?)

Just follow along with the song, putting the bits and pieces together,
and you should figger it out.
Geez, Bob Mould can write some complex sh*t!


    G#    F#   C    B
F----3----1----0----1----
C----3----1----1----3----
G#---4----2----0----3----
D#---5----3----2----3----
A#---5----3----3----1----
F----3----1----0----1----


(break 1)
     C    B    F#
F----8----6----8----
C----8----6----10---
G#---9----7----10---
D#---10---8----10---
A#---10---8----8----
F----8----6----8----
(played C/B/C/B/F# during "try to get away but i fall back again,
i get up off the floor, i'm comin' back for more")

(break 2)
F---------------------------------------
C---------------------------------------
G#-------0-------0----------------------
D#-----4---4---2---2-----0-------0------
A#---5-------3---------2---2---2---2----
F--------------------3-------3----------
(played during "you need it, you get some hate,
 you found it, but it's too late")

(break 3)
F-------------------------------------|-------------------------------------
C-------------------------------------|-------------------------------------
G#-------0-------0--------------------|-------0-------0---------------------
D#-----4---4---2---2-------------0----|-----5---5---4---4-----0-------0-----
A#---5-------3---------0-2-0---2---2--|---7-------5---------4---4---4---4---
F--------------------3-------3--------|-------------------5-------5---------
(played during "hope you're feelin' better I'm not bitter yet
 you're fadin' through the years")


(break 4)
F----------------------
C----------------------
G#-------0-------0-----
D#-----4---4---2---2---
A#---5-------3---------
F----------------------
(played during weird jumble of breaks at end of song)
            

comments powered by Disqus
↑ Back to top | Sugar Tabs for Feeling Better. Lyrics for acoustic guitar and electric guitar. Tablatures and chords are parodies/interpretations of the original songs. You may use it for private study, scholarship, research or language learning purposes only