» » »

Man Of Metropolis Steals Our Hearts Tabs (ver.1)

Artists:  A B C D E F G H I J K L M N O P Q R S T U V W X Y Z # 

Man Of Metropolis Steals Our Hearts Tabs (ver.1)

Sufjan Stevens
Rating:
0/5 (0 votes)

Hard to play? Try these video lessons and learn fast.
                Hey boys and girls, Sufjan Stevens is a really great and underappreciated artist,
and here's my tab. Standard tuning, no capo, and everything generally standard.

Intro:

Gt. I
 E5        A5        F#5
--------------|--------------|--------------|--------------|
--------------|--------------|--------------|--------------|
--------------|--2--2--2--2--|--------------|--------------|
--2--2--2--2--|--2--2--2--2--|--------------|--4--4--4--4--|
--2--2--2--2--|--0--0--0--0--|--4--4--4--4--|--4--4--4--4--|
--0--0--0--0--|--------------|--2--2--2--2--|--2--2--2--2--|

Gt. I
 E5        A5        F#5
--------------|--------------|--------------|--------------|
--------------|--------------|--------------|--------------|
--------------|--2--2--2--2--|--------------|--------------|
--2--2--2--2--|--2--2--2--2--|--------------|--4--4--4--4--|
--2--2--2--2--|--0--0--0--0--|--4--4--4--4--|--4--4--4--4--|
--0--0--0--0--|--------------|--2--2--2--2--|--2--2--2--2--|

Gt. II

--------------|--------------|--------------|--------------|
--------------|--------------|--------------|--------------|
--------------|--------------|--------------|--------------|
7/9-9-9-9-9-9-|7/9-9-9-9-9-9-|7/9-9-9-9-9-9-|7/9-9-9-9-9-9-|
--------------|--------------|--------------|--------------|
--------------|--------------|--------------|--------------|

Verse:

Gt. I
 E             A              F#m            A
--------------|--------------|--------------|--------------|
---------0----|---------2----|---------2----|---------2----|
------1-----1-|------2-----2-|------2-----2-|------2-----2-|
---2----------|---2----------|---4----------|---2----------|
--------------|-0--0--0--0---|--------------|-0--0--0--0---|
-0--0--0--0---|--------------|-2--2--2--2---|--------------|

Gt. II

 E             Asus2          F#sus4         Asus2
--------------|--------------|--------------|--------------|
--------------|-------0------|-------0------|-------0------|
-1---1--2--1--|-2---2---2----|-2---2---2----|-2---2---2----|
---2----------|---2----------|---4----------|---2----------|
--------------|--------------|--------------|--------------|
--------------|--------------|--------------|--------------|

Horn Enters

---------0----|--------------|--------------|--------------|
---0----------|----2---------|--------------|----2---------|
--------------|---------2----|--------2-----|---------2----|
--------------|--------------|---4----------|--------------|
--------------|--------------|--------------|--------------|
--------------|--------------|--------------|--------------|

Chorus (same as intro)

Gt. I
 E5        A5        F#5
--------------|--------------|--------------|--------------|
--------------|--------------|--------------|--------------|
--------------|--2--2--2--2--|--------------|--------------|
--2--2--2--2--|--2--2--2--2--|--------------|--4--4--4--4--|
--2--2--2--2--|--0--0--0--0--|--4--4--4--4--|--4--4--4--4--|
--0--0--0--0--|--------------|--2--2--2--2--|--2--2--2--2--|

Gt. I
 E5        A5        F#5
--------------|--------------|--------------|--------------|
--------------|--------------|--------------|--------------|
--------------|--2--2--2--2--|--------------|--------------|
--2--2--2--2--|--2--2--2--2--|--------------|--4--4--4--4--|
--2--2--2--2--|--0--0--0--0--|--4--4--4--4--|--4--4--4--4--|
--0--0--0--0--|--------------|--2--2--2--2--|--2--2--2--2--|

Gt. II

--------------|--------------|--------------|--------------|
--------------|--------------|--------------|--------------|
--------------|--------------|--------------|--------------|
7/9-9-9-9-9-9-|7/9-9-9-9-9-9-|7/9-9-9-9-9-9-|7/9-9-9-9-9-9-|
--------------|--------------|--------------|--------------|
--------------|--------------|--------------|--------------|

Enter Vocals

Gt. I
 E5        A5        F#5
--------------|--------------|--------------|--------------|
--------------|--------------|--------------|--------------|
--------------|--2--2--2--2--|--------------|--------------|
--2--2--2--2--|--2--2--2--2--|--------------|--4--4--4--4--|
--2--2--2--2--|--0--0--0--0--|--4--4--4--4--|--4--4--4--4--|
--0--0--0--0--|--------------|--2--2--2--2--|--2--2--2--2--|

Gt. II

--------------|--------------|--------------|--------------|
--------------|--------------|--------------|6/7-7-7-7/9-9-|
7/9-9-9-9-9-9-|7/9-9-9-9-9-9-|7/9-9-9-9-9-9-|--------------|
--------------|--------------|--------------|--------------|
--------------|--------------|--------------|--------------|
--------------|--------------|--------------|--------------|

Horn Solo

----4----7-7--|--5--4----2---|----0-----2-2--|--0--2-------|
--------------|--------------|---------------|---------2---|
--------------|--------------|---------------|-------------|
--------------|--------------|---------------|-------------|
--------------|--------------|---------------|-------------|
--------------|--------------|---------------|-------------|

Gt. I
 E             A              F#m            A
--------------|--------------|--------------|--------------|
---------0----|---------2----|---------2----|---------2----|
------1-----1-|------2-----2-|------2-----2-|------2-----2-|
---2----------|---2----------|---4----------|---2----------|
--------------|-0--0--0--0---|--------------|-0--0--0--0---|
-0--0--0--0---|--------------|-2--2--2--2---|--------------|

Gt. II

 E             Asus2          F#sus4         Asus2
--------------|--------------|--------------|--------------|
--------------|-------0------|-------0------|-------0------|
-1---1--2--1--|-2---2---2----|-2---2---2----|-2---2---2----|
---2----------|---2----------|---4----------|---2----------|
--------------|--------------|--------------|--------------|
--------------|--------------|--------------|--------------|

Horn Enters

---------0----|--------------|--------------|--------------|
---0----------|----2---------|--------------|----2---------|
--------------|---------2----|--------2-----|---------2----|
--------------|--------------|---4----------|--------------|
--------------|--------------|--------------|--------------|
--------------|--------------|--------------|--------------|
            
Hard to play? Try these video lessons and learn fast. | Correct




comments powered by Disqus
↑ Back to top | Tablatures and chords are parodies/interpretations of the original songs. You may use it for private study, scholarship, research or language learning purposes only