» » »

What I Got Bass tabs (ver.2)

Artists:  A B C D E F G H I J K L M N O P Q R S T U V W X Y Z # 

What I Got Bass tabs (ver.2)

Sublime
Rating:
0/5 (0 votes)

Hard to play? Try these video lessons and learn fast.
                This is basically it.
Ive seen some weird tabs from other people but this one is correct. He does variations 
but this is the basic template.


Verse and Chorus (repeat over and over)
G|-------------------------------------------------------------------------|
D|-------------------------------------------------------------------------|
A|--5-5-------2-3----------------------------------------------------------|
E|------3/5-3--------------------------------------------------------------|


One of the variations
G|-------------------------------------------------------------------------|
D|-------------------------------------------------------------------------|
A|--5-5-------22-3---------------------------------------------------------|
E|------3h5-3--------------------------------------------------------------|
            
Hard to play? Try these video lessons and learn fast. | Correct




comments powered by Disqus
↑ Back to top | Tablatures and chords are parodies/interpretations of the original songs. You may use it for private study, scholarship, research or language learning purposes only