» » »

Sublime, What Happend Bass tabs (ver.1)

Artists:  A B C D E F G H I J K L M N O P Q R S T U V W X Y Z # 

What Happend Bass tabs (ver.1)

Sublime Tabs
 Rating:
4/5 (4 votes)
What Happend lessons Tabs too difficult? Try these video lessons and learn fast
                Riff 1 / Intro  14x
G:-------------------------
D:--------------9-9--------
A:------7h9-7h9-----9-7----
E:---7-7----------------9--

   Riff 2  
G:------------------------
D:------------------------
A:------------------------
E:-------7-777-0-h5-------

   Riff 3 
G:-----------------------------
D:-----------------------------
A:-----------------------------
E:-------7777777--44444444-----

   Riff 4 
G:--------------------------------------
D:--------------------------------------
A:-----------77777777-------------------
E:---55555555----------5555555-2222222--

   Riff 5
G:--------------------------------
D:--------------------------------
A:--------------------------------
E:---77777777-55555555-222222222--

   Riff 6 / Tequila
G:---------------------------
D:---------------------------
A:---------------------------
E:---5-77-5-9-5-7-2--77-5-7--

   Solo / Instrumental  Part:1   
G:-----------------------------------------------------------------------------
D:-----------------------------------------------------------------------------
A:---------------------------------------------------7-777-0-h5----7-777-0-h5--
E:---7-777-0-h5--7-777-0-h5--7-777-0-h5--7-777-0-h5----------------------------

  ------------------------------------------------------------------------
  ------------------------------77-99-1010-----55-77-88-------------------
  ---------------------------77--------------55---------------------------
  ---7-777-0-h5--7-777-0-h5------------------------------777777-22222222--

  Play the part below 6 times...then on the 7th time, vv-play this-vv
  --------------------                   --------------------
  --------------------                   --------------------
  --------------------                  ---------------9999--
  ---7-777-0-h5-------                   ---7-777-0-h5-------

..::OrdeR::..
Riff 1 14x
Riff 2  7x
Riff 3  4x
Riff 4  1x
Riff 5  1x
Riff 6  1x
Riff 2  7x
Riff 3  4x
Riff 4  1x
Riff 5  1x
Riff 6  1x
Solo    1x
Riff 3  4x
Riff 4  1x
Riff 5  1x
Riff 6  1x
Riff 2  7x
Riff 3  4x
Riff 4  1x
Riff 5  1x
Riff 6  3x
Riff 4  1x
Riff 5  1x
          -=[Please Rate]=-
        -=[Jam On Potheads]=-
            
Submit corrections

comments powered by Disqus
↑ Back to top | Sublime Bass for What Happened. Lyrics for acoustic guitar and electric guitar. Tablatures and chords are parodies/interpretations of the original songs. You may use it for private study, scholarship, research or language learning purposes only