» » »

Paddle Out Tabs (ver.3)

Artists:  A B C D E F G H I J K L M N O P Q R S T U V W X Y Z # 

Paddle Out Tabs (ver.3)

Sublime
Rating:
0/5 (0 votes)

Hard to play? Try these video lessons and learn fast.
                “Paddle Out” by Sublime, off the album SUBLIME

This version is just a compilation of all the other parts all together, I in no way to 

Anday R
nadroJ22
JeffMitchell89

   D5       B5       C5       A
|----------------------------------|
|----------------------------------|
|--7-7-7-7--4-4-4-4--5-5-5-5--2----|   --this is played with distortion
|--7-7-7-7--4-4-4-4--5-5-5-5--2----|
|--5-5-5-5--2-2-2-2--3-3-3-3--0----|
|----------------------------------|

I never thought that when I grew up I would be in band
Travel all the best spots in the land
And I’m not here to brag or boast
Here to tell you about the spots that I love the most

\/ Solo 1 (No distortion, lots of reverb)

e|--------------|-------------|---------------|----------------|
B|--------------|-------------|---------------|----------------|
G|----5--4------|----5--4-----|----5--4-------|----------------|
D|-7--------5-7-|----------5--|-7--------5--7-|(7)\------------|
A|--------------|-------------|---------------|----------------|
E|--------------|-------------|---------------|----------------|

e|----------------------|---------------------|--------------------------|
B|----------------------|---------------------|--------------------------|
G|-----10----9----------|----10----9----------|-------10-----------------|
D|-12-------------10--12|---------------10----|-12----------12----10\----|
A|----------------------|---------------------|--------------------------|
E|----------------------|---------------------|--------------------------|

e|-----------------||
B|-----------------||
G|-----------------||
D|-----------------||
A|-----------------||
E|-13-----------1--||
     \\\\\\\\\\\
tremelo picking^

Play the beginning again with a different rhythym

Then play


e|------------------|
B|------------------|
G|--4-2-4-2---------|
D|--4-2-4-2-4-2-----|     x4
A|--2-0-2-0-4-2-----|
E|----------2-0-----|

Play the beginning again and play the last solo

(No distortion, lay on the reverb!)

E|---/10-10--------------------------------------|
B|---/10-10-12-10-----------10-12b-12b-12b-12r---|
G|----------12-10--10h11----10-12b-12b-12b-12r---|
D|-----------------------12----------------------|
A|-----------------------------------------------|
E|-----------------------------------------------|


E|---/10-10---------------10-10----10-10-------------|
B|---/10-10-12-10--12-----10-10----10-10-------------|
G|----------12-10--12-----------10-------------------|
D|--------------------12-----------------------------|
A|---------------------------------------------------|
E|---------------------------------------------------|

              Let Ring[----------------------------|
E|-1-1---------------------------------------------|
B|-1-1-3--1--------------4---4---------------------|
G|-----3--1-1h2---1--3/5---5-----------------------|
D|--------------3----------------------------------|
A|-------------------------------------------------|
E|-------------------------------------------------|

E|---1-1-----4-1-----/13--13\--------------------|
B|---1-1-3-1-----1---/13--13\--------------------|
G|-------3-1---------/14--14\--------------------|
D|-----------------------------------------------|
A|-----------------------------------------------|
E|-----------------------------------------------|
            
Hard to play? Try these video lessons and learn fast. | Correct




comments powered by Disqus
↑ Back to top | Tablatures and chords are parodies/interpretations of the original songs. You may use it for private study, scholarship, research or language learning purposes only