» » »

Sublime, No Woman No Cry Tabs (ver.1)

Artists:  A B C D E F G H I J K L M N O P Q R S T U V W X Y Z # 

No Woman No Cry Tabs (ver.1)

Sublime Tabs
 Rating:
4/5 (4 votes)
No Woman No Cry lessons Tabs too difficult? Try these video lessons and learn fast
                Tuning: Standard (EADGBE)
 
Intro: (Acoustic)
    C        G   Am                C (starts over again)
E|-----0-0-0----1----------------------|
B|-----1-1-1----0-1---1----------------|
G|-----0-0-0----0-2---2----------------|
D|-----2-2-2-0--0-2---2-3-3-2-2h3h2----|
A|--3--3-3-3-2--2-X---X-------------3--|
E|-----X-X-X-3--3-X---X----------------|
       D D U D  D D  D
 
That's pretty much the whole song. He just plays that riff over and over again except on the first and last chorus. There he plays:
 
Chorus: (Electric - lots of distortion)
 
E|-------------------------------| 
B|-------------------------------| 
G|--5-5-5-----------10-10-9-9-5--|   
D|--5-5-5-5-5-5-7-7-10-10-9-9-5--|
A|--3-3-3-5-5-5-7-7-8--8—-7-7-3--|
E|--X-X-X-3-3-3-5-5-X--X--X-X-X--|
 
(I don't know if that's the exact number of times he strums those chords)
 
PUT THAT IN YOUR PIPE AND SMOKE IT     
                                       
---------------------------------------------------
R.I.P. Ryan Johnson and Bradley Nowell
---------------------------------------------------
            
Submit corrections

comments powered by Disqus
↑ Back to top | Sublime Tabs for No Woman No Cry. Lyrics for acoustic guitar and electric guitar. Tablatures and chords are parodies/interpretations of the original songs. You may use it for private study, scholarship, research or language learning purposes only