» » »

Sublime, Jailhouse Tabs (ver.1)

Artists:  A B C D E F G H I J K L M N O P Q R S T U V W X Y Z # 

Jailhouse Tabs (ver.1)

Sublime Tabs
 Rating:
4/5 (4 votes)
Jailhouse lessons Tabs too difficult? Try these video lessons and learn fast
                

Sublime-Jailhouse
-Standard Tuning-
-This is an amazing song, there really is no chorus to it, 
 its all verse and solo, i learned how to play this out of a book,
 if i still had the book i could give a more accurate tab,
 hope it helps anyway-Inlyghtened1-

-Intro1-(there are 2 ways to play intro)(slight distortion)
---------x------------------------x------0------------------------------------
---7--7--x-7-------------9-----9--x------0------------------------------------
---7--7--x-7-----7-------9-----9--x-------------------------------------------
---7--7--x-7-----7-------9-----9--x-------------------------------------------
---5--5--x---5-------5/7-------7--x-------------------------------------------
-------------------------------------0---------12/----------------------------
                                                                              
-Intro2-
------x---10----------x--x-----12----x--x-------------------------------------
------x---10----------x--x-----12----x--x-------------------------------------
------x---11----------x--x-----13----x--x-------------------------------------
------x---12----------x--x-----14----x--x-------------------------------------
------x---------------x--x-----------x--x-------------------------------------
                                                                              

-Verses-(basically just D and E barre chords through whole song)
ex.lyrics 
               Jailhouse  gets  empty__
                     Rudy   gets   plenty___
-----------x-x----7---7-----x-----9---9--9--9---------------------------------
----7--7/--x-x----7---7-----x-----9---9--9--9---------------------------------
----7--7/--x-x----7---7-----x-----9---9--9--9---------------------------------
----5--5/--x-x--------------x-------------------------------------------------
-----------x-x--------------x-------------------------------------------------
                                                                              

-Solo-(sublime solos are so simple and perfect, i love this song)
p.m.___________________________________________________
------2--4-2-5-4-2-2---2-------------x-x-----------------------x--x-x---------
--2-4----------------4---4-2-4-4-4-2-x-x--2-4-4-4-2-4-2--------x--x-x---------
-------------------------------------x-x----------------4-2-4--x--------------
-------------------------------------x-x--------------------------------------
                                                                              

------------------------0---------------------------5--5h7---10---------------
------------------------0-x---4--2----4b-2---4-h5h6--------------9h11p9-------
-------2---2h4-2----2h4-2-x-2-4-----------------------------------------9b/---
--2h4----4--------0-------x---------------------------------------------------
--------------------------x---------------------------------------------------
                                                                              

----------------------------------------------5--------12---------------------
------------------------------------------5h7---7--12b----12b-----------------
----------------------------2-4p3---2h4/6-------------------------------------
-2h4-2--------2---------2h4-------4-------------------------------------------
----------2/4-----2h3h4-------------------------------------------------------
-------0----------------------------------------------------------------------
            
Submit corrections

comments powered by Disqus
↑ Back to top | Sublime Tabs for Jailhouse. Lyrics for acoustic guitar and electric guitar. Tablatures and chords are parodies/interpretations of the original songs. You may use it for private study, scholarship, research or language learning purposes only