>
 >
Foolish Fool

Foolish Fool Guitar Tabs

Sublime - Foolish Fool chords, tabs, tablatures, lyrics

Guitar lessons | Add/correct | Request | Top 50 tabs Artists:  A B C D E F G H I J K L M N O P Q R S T U V W X Y Z 0-9

Foolish Fool Guitar Tabs – Sublime

CD, Sheet music, Poster

Do you like Foolish Fool? Share with your friends now
ChordsTabsTabs v2
This is only my 3rd tab, but I think everything is correct.  I didn't tab the outro because Brad just seems to be 

going into another song so I ended it with A.  

                                                                    
	E|----------------4--|
	B|----------------5--|
	G|----------------6--|
	D|----------------6--|
	A|--------3-4--4-----|
A	E|---5-5-0-----------|        C#m Cm Bm
  Crazy Crazy               Crazy Fool

Bm       A
Cra - zy fool

A                                E                             D
If she thinks that she's gonna dispose of my world, gotta be a crazy crazy crazy 

C#m         C#m  Cm   Bm              A       A       G#      F#
crazy fool            Cra - zy        Fool

       				E|---------------------14-|
      				B|---------------------14-|
       				G|------------------------|
       				D|------------------------|
       				A|-----0-0h2-0------------|
F#       			E|-0-2---------2-0-2------|                             
My love for you was oh so strong

				E|---------------------14-|
      				B|---------------------14-|
       				G|------------------------|
       				D|------------------------|
       				A|-----0-0h2-0-----0------|
F#       			E|-0-2---------2-0--------|     			         
We went together for oh so long

				E|---------------------|
      				B|---------------------|
       				G|---------------------|
       				D|---------------------|
       				A|-----0-0h2-0---------|
F#       			E|-0-2---------2-0-2---| F#(9th fret)  F  E
Am I to complain about this misery? 

E
Is  this this the way loves s'posed to be?

E                 A
S'posed to be now
              
		E|-------|
      		B|-------|
       		G|-------|
       		D|-------|
       		A|-----4-|
A        	E|-5-7---|
Foolish foolish

C#m            C#m Cm Bm
Oh you just a

Bm         E
Foolish     girl
     
			E|-------------------|
      			B|-------------------|
       			G|-------------------|
       			D|-------------------|
       			A|-----------------4-|
    A        		E|-5-5--7-7--5/7\5---|
Ohhh foolish foolish foolish
		
C#m	      C#m Cm Bm     A
Oh your just a 	      crazy girl
A				     E	        E D# D
And she thinks that she's gonna take you from me
D                          C#m
Gotta be a crazy crazy crazy 
C#m       C#m Cm Bm
Crazy fool
	  A(2nd fret)
Crazy fool





Comments


Popular Sublime tabs & chords
What I Got 3 Bass Tabs
Dont Push Chords
Farther I Go Chords
Its Who You Know Chords
Bad Fish 6 Tabs
Boss D.J. Chords Shown Tabs
Drunk Drivin Tabs
Fighting Blindly Tabs
Legal Dub Tabs
Thanx 1 Tabs


Song lyrics



↑ Back to top | Tablatures and chords are parodies/interpretations of the original songs. You may use it for private study, scholarship, research or language learning purposes only
© 2014 AZChords.com Contact us | Privacy policy | DMCA | Add/correct tabs | Request tabs | Top 50 tabs