» » »

D.J.S Bass tabs (ver.1)

Artists:  A B C D E F G H I J K L M N O P Q R S T U V W X Y Z # 

D.J.S Bass tabs (ver.1)

Sublime
Rating:
0/5 (0 votes)

Hard to play? Try these video lessons and learn fast.
                Bassist: Eric Wilson

Intro: Brad singing, gunshots, music

First Verse: 

----0---------------0--------------0---------------0--------------0---------------0--------------0---------------0----------
-3----0-22-3--3----0-22-3--3----0-22-3--3----0-22-3--3----0-22-3--3----0-22-3--3----0-22-3--3----0-22-3-

I think it's pretty close, although it's played fast and... well it's Eric, so he improvs a
lot... such an amazing bassist... but just do you own little improv on this... and it
should be close enough.

Chorus:

------3-3h5-3------3-3h5-3--555-------------------------
-3-5------------3-5------------------333-555555---------

Again, I think it's close, but it sounds like Eric hits the A 3's and 5's a few extra times before the 
second verse... just play whatever sounds good to you.

Second Verse:

-3-3-0-2-3-3-00-2-3---3-3-0-2-3-3-00-2-3---3-3-0-2-3-3-00-2-3---3-3-0-2-3-3-00-2-3--- 

-3-3-0-2-3-3-00-2-3---3-3-0-2-3-3-00-2-3---3-3-0-2-3-3-00-2-3---3-3-0-2-3-3-00-2-3---

Again, do some improv and you'll be good.

Play Chorus Again

Second Verse again

Chorus Again

Second Verse

Second Chorus

----------------------------------------555-------------------
------3-3h5-3------3-3h5-3--333-------------------------
-3-5------------3-5------------------------333-555555---

Bridge

----55555535------------33-55------55555535------------33-55---
-3----------------3-5555-----------3----------------3-5555------------

-------------------------------------
----55555535------------33-55-
-3----------------3-5555---------
-------------------------------------

Guitar Solo - no bass

After Solo:

----55555535------------33-55------55555535------------33-55---
-3----------------3-5555-----------3----------------3-5555------------

----55555535------------33-55------55555535------------33-55---
-3----------------3-5555-----------3----------------3-5555------------

----55555535------------33-55------55555535------------33-55---
-3----------------3-5555-----------3----------------3-5555------------


This tab is pretty rough... but I think if you throw in some improv stuff you should do fine...
a lot of Sublime stuff is pretty hard to tab, because Eric always throws in little rythms and
stuff like that... anyways, please rate, and enjoy.
            
Hard to play? Try these video lessons and learn fast. | Correct




comments powered by Disqus
↑ Back to top | Tablatures and chords are parodies/interpretations of the original songs. You may use it for private study, scholarship, research or language learning purposes only