» » »

April 2 1 Tabs (ver.5)

Artists:  A B C D E F G H I J K L M N O P Q R S T U V W X Y Z # 

April 2 1 Tabs (ver.5)

Sublime
Rating:
0/5 (0 votes)

Hard to play? Try these video lessons and learn fast.
                "(9)
April 29, 1992 (Miami)
				    SUBLIME
			 ACOUSTIC VERSION

E|------------------------------------------------------------|
B|------------------------------------------------------------|
G|------------------------------------------------------------|
D|------------------------------------------------------------|
A|--5-5-0-5-3-3-------3-3---5-5-0-5-----------3-3-3-3-|
E|------------------3-3------------------1-1-1-1-----------|

E|----------------------------------------------------------|
B|----------------------------------------------------------|
G|----------------------------------------------------------|
D|----------------------------------------------------------|
A|--5-5-0-5-3-3-----3-3---5-5-0-5-----------3-3-3-3-|
E|-----------------3-3-----------------1-1-1-1-----------|

	**-*NOW WAIT A LITTLE UNTILL NEXT GUITAR PART*-**

....where do you think I got this guitar that your hearin today...
	
	         **-*NOW PLAY THIS 4 TIMES!!*-**

E|-------------------------|
B|-------------------------|
G|-------------------------|
D|-------3-5---------3-5-|
A|--5-5-----5-5-5-5-----|
E|-------------------------|

	**-*NOW WAIT A LITTLE UNTILL NEXT GUITAR PART*-**

...but it's written on the wall, national guard smoke from all around...

	**-*WAIT FOR IT TO PLAY IN BASS.. THEN PLAY THIS 2 TIMES!**-*

E|---------------------------|
B|---------------------------|
G|---------------------------|
D|------3-5-----------3-5--|
A|-5-5------5-5-5-5-------|
E|---------------------------|

	**-*NOW RIGHT AFTER THAT.. PLAY THIS 4 TIMES*-**

E|----------------------------------------------------------|
B|----------------------------------------------------------|
G|----------------------------------------------------------|
D|----------------------------------------------------------|
A|--5-----5-5-3-------3-3-5-5-0-5------------3-3-3-3-|
E|-----5----------3-3----------------1-1-1-1-------------|

	**-*ON THE FORTH TIME YOU PLAY IT.... THROUGH THIS IN 
		    AFTER:  --------3-3-3-3-- *-**
			         --1-1-1-1--------

E|------------------------------------|
B|------------------------------------|
G|------------------------------------|
D|------------------------------------|
A|--5--WAIT--5--4--WAIT--4--5-|
E|-------------------------------------|

	**-*NOW WAIT A LITTLE UNTILL NEXT GUITAR PART*-**

... wanna wanna let it buuurrn...

		   **-*NOW PLAY THIS 4 TIMES*-**

E|--------------------------|
B|--------------------------|
G|--------------------------|
D|------3-5-----------3-5-|
A|--5-5-----5-5-5-5------|
E|--------------------------|

	Now was that really that hard...... this is the first song i ever 
learned in the guitar... so if you cant play it... get rid of your 
guitar... BECAUSE YOU SUCK!!!
"            
Hard to play? Try these video lessons and learn fast. | Correct




comments powered by Disqus
↑ Back to top | Tablatures and chords are parodies/interpretations of the original songs. You may use it for private study, scholarship, research or language learning purposes only