» » »

Sublime, April 2 1 Bass tabs (ver.3)

Artists:  A B C D E F G H I J K L M N O P Q R S T U V W X Y Z # 

April 2 1 Bass tabs (ver.3)

Sublime Tabs
Rating:
0/5 (0 votes)
April 2 1 lessons Tabs too difficult? Try these video lessons and learn fast
                Here ya go.  I tabbed it and you just have to figure out the rythms which isnt that hard.  Rate Please.

Intro
G|-------------------|
D|-------------------| the intro starts
A|-5-5-0-5-3-3-----3-| when the voice says "like a free"
G|-------------3h5---|

G|-------------------|
D|-------------------|
A|-5-5-0-5------3333-| 
G|---------1111------|

G|-------------------|
D|-------------------|
A|-5-5-0-5-3v-3----3-|
G|-------------3h5---|

G|-------------------|
D|-------------------|
A|-5-5-0-5------3333-| 
G|---------1111------|

Verse
G|---------------------|
D|---------------------|
A|-5~---5~---3~--------| X(3)
G|----5----5----3-5~-3-|

Fill 1
G|------------------|
D|-0-0-3-5-0000-3-5-|
A|------------------| X(4)
G|------------------|

Pre-Verse
G|------|
D|------|
A|------| X(2)
E|-5~-3-|

Verse
G|---------------------|
D|---------------------|
A|-5~---5~---3~--------| X(6)
G|----5----5----3-5~-3-|

Fill 1
G|------------------|
D|-0-0-3-5-0000-3-5-|
A|------------------| X(4)
G|------------------|

Fill 2
G|-----------------|
D|-----------------|
A|-5-0-543-3-----3-|
G|-----------3h5---|

G|-----------------|
D|-----------------|
A|-5-0-5------3333-| X(3)
G|-------1111------|

Verse
G|---------------------|
D|---------------------|
A|-5~---5~---3~--------| X(6)
G|----5----5----3-5~-3-|

Fill 1
G|------------------|
D|-0-0-3-5-0000-3-5-|
A|------------------| X(3)
G|------------------|

Outro
G|---------------------|
D|-0-0-3-5-0000-3-5----|
A|------------------5\-| 
G|---------------------|

key 
h - hammer on
v - vibrate (bend back and forth really fast)
~ - hold the note long
\ - slide down
            
Submit corrections

comments powered by Disqus
↑ Back to top | Sublime Bass for April 2 1. Lyrics for acoustic guitar and electric guitar. Tablatures and chords are parodies/interpretations of the original songs. You may use it for private study, scholarship, research or language learning purposes only