» » »

St Vincent, Just The Same But Brand New Tabs (ver.1)

Artists:  A B C D E F G H I J K L M N O P Q R S T U V W X Y Z # 

Just The Same But Brand New Tabs (ver.1)

St Vincent Tabs
 Rating:
4/5 (4 votes)
Just The Same But Brand New lessons Tabs too difficult? Try these video lessons and learn fast
1
                -------------------------------------------------------------------------------
                             Just The Same But Brand New - St. Vincent
-------------------------------------------------------------------------------

Tuning: Standard

THROUGHOUT:

e|---------4/7b--------------6/9b-|
B|----5p4---------------7p6-------|
G|--------------------------------|
D|-2-------/6b--------4------/8b--|
A|--------------------------------|
E|--------------------------------|

CHORUS:

e|----------------------2-4---2-----|-----3-5---3--------5-7--5-----|
B|-----2-4----2---------------------|-------------------------------|
G|-------------------3----------3---|---4--------4-----7--------7---|
D|---2---------2--------------------|-------------------------------|
A|----------------------------------|-3------------3-5------------5-|
E|-0-------------0-2--------------2-|-------------------------------|

INSTRUMENTAL:

e|----------------------------------------------------------------------|
B|----------------------------------------------------------------------|
G|-4h6p4h6p4h6-4h6p4h6p4h6-4h6p4h6-6h8p6h8p6h8-6h8p6h8p6h8-6h8p6h8------|
D|----------------------------------------------------------------------|
A|----------------------------------------------------------------------|
E|----------------------------------------------------------------------|


************************************

| /   slide up
| \   slide down
| h   hammer-on
| p   pull-off
| ~   vibrato
| +   harmonic
| x   Mute note
| b   Bend
| pb  Pre-bend
| br  Bend release
| pbr Pre-bend release
| brb Bend release bend

************************************
            
Submit corrections

comments powered by Disqus
↑ Back to top | St Vincent Tabs for Just The Same But Brand New. Lyrics for acoustic guitar and electric guitar. 1 Tablatures and chords are parodies/interpretations of the original songs. You may use it for private study, scholarship, research or language learning purposes only