» » »

St Vincent, Human Racing Tabs (ver.1)

Artists:  A B C D E F G H I J K L M N O P Q R S T U V W X Y Z # 

Human Racing Tabs (ver.1)

St Vincent Tabs
 Rating:
4/5 (4 votes)
Human Racing lessons Tabs too difficult? Try these video lessons and learn fast
1
                -------------------------------------------------------------------------------
                             Human Racing - St.Vincent
-------------------------------------------------------------------------------

Tuning:Standard
Capo: 4th fret

All fret numbers are relative to the capo. So then '0' is actually the 4th fret, '3' is 
the 7th, etc.

Intro (0:00)
--------------------------------
This part is pretty loose on the album and I havent
seen her play it live at all, so its probably not exactly
100% right. Sounds close though, I think. Feel free to play
around with it.

e|------------------------------------------------|
B|-----------3p0------3/5---3p1p0-----------------|
G|--------------------------------0-0h2h4p2p0-----|
D|-------0---0------------------------------------|
A|---0h3---3-3--------3/5---3---------------------|
E|------------------------------------------------|

e|------------------------------------------------|
B|-----------3p0------3/5---3p1p0-----------------|
G|--------------------------------0-0h2h4p2-------|
D|-------0---0------------------------------------|
A|---0h3---3-3--------3/5---3---------------------|
E|------------------------------------------------|



First Part (0:07)
--------------------------------

e|-----------------------------0---|
B|------0-----0---3--1p0-----------|
G|------0-----0----------0---------|
D|------2-----2------------2-------|
A|--3-----0h3---3-3----------3-----|
E|---------------------------------|x2

e|---------------------------------|
B|---------------------------------|
G|------6-----6-----6-----6-----6--|
D|------5-----5-x---5-----5-x---5--|
A|--------------x-----------x------|
E|--5-----0-5-----5---0-5-----5----|x2

e|-----------------------------0---|
B|------0-----0---3--1p0-----------|
G|------0-----0----------0---------|
D|------2-----2------------2-------|
A|--3-----0h3---3-3----------3-----|
E|---------------------------------|x2

e|---------------------------------|
B|---------------------------------|
G|------6-----6-----6-----6-----6--|
D|------5-----5-x---5-----5-x---5--|
A|--------------x-----------x------|
E|--5-----0-5-----5---0-5-----5----|x2

e|-------------------------------!-|--------------------------------|
B|-----7-------7-------7-------7-$-|--------------------------------|
G|-------5-------5-------5-------%-|-----5-----5-----5-----5-----5--|
D|---------7-------7-------7-----!-|-----4-----4-x---4-----4-x---4--|
A|--5--------5-------5-------5---#-|-------------x-----------x------|
E|-------------------------------?-|--4----0-4-----4---0-4-----4----|
                                 ^ Rake your picking hand across the strings all aggressive-like.

e|---------------------------------|--------------------------------------|
B|---------------------------------|--------8-----------7-----------5-----|
G|------4-----4-----4-----4-----4--|------6---6-------5---5-------4---4---|
D|------3-----3-x---3-----3-x---3--|----8-------8---7-------7---5-------5-|
A|--------------x-----------x------|--7-----------5-----------4-----------|
E|--3-----0-3-----3---0-3-----3----|--------------------------------------|


e|----------------------|-----------------------|----------------------|
B|-----4---4-----4---4--|-----4---4-----4-------|-----3---3-----3---3--|
G|-----2---2-----2---2--|-----2---2-----2-------|-----1---1-----1---1--|
D|-----4---4-----4---4--|-----4---4-----4-------|-----3---3-----3---3--|
A|--2-------------------|--2--------------2---2-|--1-------------------|
E|------------2---------|------------2----------|------------1---------|


e|--------0--------0--|--------0--------0--|
B|-----2--------2-----|-----2--------2-----|
G|-----0--------0-----|-----0--------0-----|
D|-----2--------2-----|-----2--------2-----|  <-- leave this out on the last repeat
A|--0--------0--------|--0--------0--------|
E|--------------------|--------------------|

Repeat this entire section three times.


Not-First Part! (2:30)
--------------------------------

e|--------------------------|--------------------------|
B|--------------------------|--------------------------|
G|--------2p0-----------2---|----2---2p0-----------2p0-|
D|----2p0-----2p0---2p0-----|------------2p0---2p0-----|
A|--4-------------4---------|----------------4---------|
E|--------------------------|--------------------------|

e|--------------------------|--------------------------|
B|--------------------------|--------------------------|
G|--------3p0-----------3---|----3---3p0-----------3p0-|
D|----3p0-----3p0---3p0-----|------------3p0---3p0-----|
A|--5-------------5---------|----------------5---------|
E|--------------------------|--------------------------|


If you're playing this solo and would prefer a little more oomph
for this last bit, I think Annie uses these chords live:

e|-0-------0-------0-------1---|
B|-2-------1-------2-------3---|
G|-0-------0-------0-------3---|
D|-2--...--2--...--2--...--3---|
A|-0-------3-------0-------1---|
E|-----------------------------|


This song is toooooooooooooo good. Enjoy! Lemme know if you find any mistakes.


************************************

| /   slide up
| \   slide down
| h   hammer-on
| p   pull-off
| ~   vibrato
| +   harmonic
| x   Mute note
| b   Bend
| pb  Pre-bend
| br  Bend release
| pbr Pre-bend release
| brb Bend release bend

************************************
            
Submit corrections

comments powered by Disqus
↑ Back to top | St Vincent Tabs for Human Racing. Lyrics for acoustic guitar and electric guitar. 1 Tablatures and chords are parodies/interpretations of the original songs. You may use it for private study, scholarship, research or language learning purposes only