>
 >
Sexy And 17

Sexy And 17 Bass Tabs

Stray Cats - Sexy And 17 chords, tabs, tablatures, lyrics

Guitar lessons | Add/correct | Request | Top 50 tabs Artists:  A B C D E F G H I J K L M N O P Q R S T U V W X Y Z 0-9

Sexy And 17 Bass Tabs – Stray Cats

CD, Sheet music, Poster

Do you like Sexy And 17? Share with your friends now
Bass Tabs
Sexy & 17


Intro
 E              A              E              B              E
|---------|    |---------|    |---------|    |---------|    |---------|
|---------|    |-----2---|    |---------|    |---1-4-1-|    |---------|
|-----2---| x4 |-0-4---4-| x2 |-----2---| x2 |-2-------| x2 |-----2---| x2
|-0-4---4-|    |---------|    |-0-4---4-|    |---------|    |-0-4---4-|

Verse 1
 E        A       E                A                E
|---------------------------------|---------------------------------|
|-------------2-------------------|-----2-------2-------------------|
|-----2---0-4---4-----2-------2---|-0-4---4-0-4---4-----2-------2-0-|
|-0-4---4---------0-4---4-0-4---4-|-----------------0-4---4-0-4-----|

 B        A       E
|---------------------------------|
|---1-4-1-----2-------------------|
|-2-------0-4---4-----2-------2---|
|-----------------0-4---4-0-4---4-|

Verse 2
 E        A       E                A                E
|---------------------------------|---------------------------------|
|-------------2-------------------|-------------2-------------------|
|-----2---0-4---4-----2-------2---|-0-0-0-0-0-4---4-----2-------2-0-|
|-0-4---4---------0-4---4-0-4---4-|-----------------0-4---4-0-4-----|

 B        A       E       B
|---------------------------------|
|---1-4-1-----2-------------------|
|-2-------0-4---4-----0-1-2-0-----|
|-----------------0-4---------4-2-|

Chorus
 E                                 A                E
|---------------------------------|---------2-----------------------|
|---------2---------------2-------|-----2-4---4-2-----------2-------|
|-----2-4---4-2-------2-4---4-2---|-0-4-----------4-----2-4---4-2---|
|-0-4-----------4-0-4-----------4-|-----------------0-4-----------4-|

 B        A       E       B
|---------------------------------|
|---1-4-1-------------------------|
|-2-------0-0-0-4-----0-1-2-0-----|
|-----------------0-4---------4-2-|

Verse 3
 E        A       E                A                E
|---------------------------------|---------------------------------|
|-------------2-------------------|-----2-4-----2-------------------|
|-----2---0-4---4-----2-------2---|-0-4-----0-4---4-----2-------2-0-|
|-0-4---4---------0-4---4-0-4---4-|-----------------0-4---4-0-4-----|

 B        A       E
|---------------------------------|
|---1-4-1-----2-------------------|
|-2-------0-4---4-----2-------2---|
|-----------------0-4---4-0-4---4-|

Verse 4
 E        A       E                A                E
|---------------------------------|---------------------------------|
|-------------2-------------------|-------------2-------------------|
|-----2---0-4---4-----2-------2---|-0-0-0-0-0-4---4-----2-------2-0-|
|-0-4---4---------0-4---4-0-4---4-|-----------------0-4---4-0-4-----|

 B        A       E       B
|---------------------------------|
|---1-4-1-------------------------|
|-2-------0-0-0-4-----0-1-2-0-----|
|-----------------0-4---------4-2-|

Chorus
 E                                 A                E
|---------------------------------|---------2-----------------------|
|---------2---------------2-------|-----2-4---4-2-----------2-------|
|-----2-4---4-2-------2-4---4-2---|-0-4-----------4-----2-4---4-2---|
|-0-4-----------4-0-4-----------4-|-----------------0-4-----------4-|

 B        A       E       B
|---------------------------------|
|---1-4-1-----2-4-----------------|
|-2-------0-4---------0-1-2-0-----|
|-----------------0-4---------4-2-|

Solo
 E                                 A                E
|---------------------------------|---------2-----------------------|
|---------2---------------2-------|-----2-4---4-2-----------2-------|
|-----2-4---4-2-------2-4---4-2---|-0-4-----------4-----2-4---4-2---|
|-0-4-----------4-0-4-----------4-|-----------------0-4-----------4-|

 B        A       E                E
|---------------------------------|---------------------------------|
|---1-4-1-----2-4---------2-------|-------------------------2-------|
|-2-------0-4---------2-4---4-2---|-----2-4-----2-4-----2-4---4-2---|
|-----------------0-4-----------4-|-0-4-----0-4-----0-4-----------4-|

 A                E                B        A       E
|---------------------------------|---------------------------------|
|-----2-------2-4-----------------|---1-4-1-----2-------------------|
|-0-4---4-0-4---------2-------2---|-2-------0-4---4-----------------|
|-----------------0-4---4-0-4---4-|-----------------0-0-0-0-0-2-3-4-|

Bridge
 A                                                  F#
|---------------------------------|---------------------------------|
|---------------------------------|---------------------------------|
|-0-0-0-0-0-0-0-0-0-0-0-0-0-0-0-0-|-0-0-0-0-0-0-0-----------2-0-----|
|---------------------------------|---------------432-----------4-2-|

Verse 5
 E        A       E                A                E
|---------------------------------|---------------------------------|
|-------------2-------------------|-----2-4-----2-4-----------------|
|---------0-4---4-----2-------2---|-0-4-----0-4---------2-------2-0-|
|-0-0-0-0---------0-4---4-0-4---4-|-----------------0-4---4-0-4-----|

 B        A       E       B
|---------------------------------|
|---1-4-1-----2-------------------|
|-2-------0-4---4-----0-1-2-0-----|
|-----------------0-4---------4-2-|

Chorus
 E                                 A                E
|---------------------------------|---------2-----------------------|
|---------2---------------2-------|-----2-4---4-2-----------2-------|
|-----2-4---4-2-------2-4---4-2---|-0-4-----------4-----2-4---4-2---|
|-0-4-----------4-0-4-----------4-|-----------------0-4-----------4-|

 B        A       E       B
|---------------------------------|
|---1-4-1-----2-------------------|
|-2-------0-4---4-----0-1-2-0-----|
|-----------------0-4---------4-2-|

Outro
 B        A       E       B         B       A       E
|---------------------------------|---------------------------------|
|---1-4-1-----2-------------------|---1-4-1-----2-------------------|
|-2-------0-4---4-----0-1-2-0-----|-2-------0-4---4-----------------|
|-----------------0-4---------4-2-|-----------------0-------------0-|





Comments


Popular Stray Cats tabs & chords
Bring It Back Again Chords
Lookin Better Every Beer 1 Chords
Please Dont Touch Chords
Wild Saxophone Chords
18 Miles To Memphis Tabs
I Wont Stand In Your Way 2 Tabs
I Wont Stand In Your Way Anymore 2 Tabs
Somethin Else Tabs
Stray Cat Strut Ukulele
Ubangi Stomp Ukulele


Song lyrics



↑ Back to top | Tablatures and chords are parodies/interpretations of the original songs. You may use it for private study, scholarship, research or language learning purposes only
© 2014 AZChords.com Contact us | Privacy policy | DMCA | Add/correct tabs | Request tabs | Top 50 tabs