>
 >
Stray Cat Strut

Stray Cat Strut Bass Tabs

Stray Cats - Stray Cat Strut chords, tabs, tablatures, lyrics

Guitar lessons | Add/correct | Request | Top 50 tabs Artists:  A B C D E F G H I J K L M N O P Q R S T U V W X Y Z 0-9

Stray Cat Strut Bass Tabs – Stray Cats

CD, Sheet music, Poster

Do you like Stray Cat Strut? Share with your friends now
Bass TabsBass Tabs v2Bass Tabs v3Bass Tabs v4ChordsChords v2TabsTabs v2Ukulele
Stray Cats - Stray Cat Strut
Tuning (E, A, D, G)

Intro
G-----------------------------------------------------|
D---------------1---2---------------------------------|
A-3-2-1-0---------3---3-3-1-1---------3-3-1-1---------|
E---------4-3-1---------------4-4-3-3---------4-4-3-3-| x's 4

G-----------------|
D-----------------|
A-3-3-1-1---------|
E---------4-4-3-3-|

Verse
G-----------0---------------------|
D-----0-3-4---1-0-----------------|
A-3-4-------------3-3-1-1---------|
E-------------------------4-4-3-3-| x's 2

G-----------0-------------|
D-----0-3-4---1-0-----0-2-|
A-3-4-------------3-3-----|
E-------------------------|

G-----------------|
D-3-3-1-1---------|
A---------4-4-3-3-|
E-----------------| x's 3

G-----------------------------------|
D-3---------------------------------|
A---3-3-1-1---------3-3-1-1---------|
E-----------4-4-3-3---------4-4-3-3-|

Solo
G-----------0-------------------------------0------|
D---0-1-3-4---1-0-------------------0-1-3-4---1-0--|
A-3---------------3-3-1-1---------3--------------3-|
E-------------------------4-4-3-3------------------|

Pre-Chorus
G---1-0----------------------------1-0---------------------------|
D-3-----3-1-1-0-----1-0----0-1-2-3-----3-1-0-----0-----------0---|
A---------------4-3-----1-3------------------3-4---3-2-0---2---2-|
E--------------------------------------------------------3-------|

Chorus
G---0---------------|
D-------3-----------|
A-3---1-----------3-|
E---------4-4-3-3---| x's 3

G-----------------|
D-----------------|
A-3---1-----------|
E---3---1-4-4-3-3-| x's 2

Bridge
G-----------0-------------4-3-0-3-5-3-0-------------------------|
D---0-1-3-4---1-0---1-5-1---------------1---1-0-3---------1-0---|
A-3---------------3-----------------------3-------3-1--1-3----2-|
E-----------------------------------------------------3---------|

Solo 2
G-----------0--------------------------------------|
D---0-1-3-4---1-0----------------------------------|
A-3---------------3--1-----------3-3-1-1---------3-|
E-------------------3--1-4-4-3-3---------4-4-3-3---|

Pre-Chorus
G---1-0----------------------------1-0---------------------------|
D-3-----3-1-1-0-----1-0----0-1-2-3-----3-1-0-----0-----------0---|
A---------------4-3-----1-3------------------3-4---3-2-0---2---2-|
E--------------------------------------------------------3-------|

Chorus
G-----------------       ---|
D-----------------       ---|
A-3-3-1-1---------       -3-|
E---------4-4-3-3- x's 3 ---|

Outro
G----------------------------------|
D-------------1--------------------|
A-3-2-1---------3---0-2-3--{3}-{3}-|
E-------4-3-1-----3----------------|





Comments


Popular Stray Cats tabs & chords
Built For Speed Bass Tabs
Sexy And 17 Bass Tabs
Stray Cat Strut 3 Bass Tabs
Stray Cat Strut 4 Bass Tabs
Gina Chords
Lookin Better Every Beer Chords
I Wont Stand In Your Way Tabs
My One Desire Tabs
Stray Cat Strut Tabs
Lookin Better Every Beer Ukulele


Song lyrics



↑ Back to top | Tablatures and chords are parodies/interpretations of the original songs. You may use it for private study, scholarship, research or language learning purposes only
© 2014 AZChords.com Contact us | Privacy policy | DMCA | Add/correct tabs | Request tabs | Top 50 tabs