» » »

Strapping Young Lad, Love? Bass tabs (ver.1)

Artists:  A B C D E F G H I J K L M N O P Q R S T U V W X Y Z # 

Love? Bass tabs (ver.1)

Strapping Young Lad Tabs
 Rating:
4/5 (4 votes)
Love? lessons Tabs too difficult? Try these video lessons and learn fast
                
main riff
f|---------------------|
c|---------------------|x16
g|-------2-------------|
c|-0223002-0223001^(2)-|

bridge

f|-----------------------------------------------------|
c|----------4~----------4~\3~---/7-7\5-5\3~-/7-7\5-5\3-|
g|-----------------------------------------------------|
c|-4444-44-4---4444-44-4-------------------------------|

verse intro
f|--------------------|
c|--------------------|x3
g|--------------------|
c|-222222255555551111-|

f|---------------------|
c|---------------------|
g|---------------------|
c|-222222255555551-1-1-|

verse riff- same as verse intro

bridge
f|----------------------------------------------------------------|
c|----------------------------------------------------------------|
g|----------------------------------------------------------------|
c|-3333333^(4)2-3333333^(4)2-222222255555551111-222222255555551-1-|

verse riff, same as before, with bridge.

pre-chorus

f|--------------------------|
c|--------------------------|
g|--------------------------|
c|-000000000000000000000000-|

f|-----------------|
c|-----------------|x4
g|-----------------|
c|-0223002-0223002-|

chorus

f|-----------------------------------------------|
c|---5~---~4~~-----------------------------------|x4
g|---~5~--~~4~-----------------------------------|
c|-5~----4~~~~-0223002-0223002---0223002-0223002-|

chorus outro

f|------------------|
c|------------------|x4
g|------------------|
c|-222222255555550~-|

bridge
f|-----------------------------------------------------------|
c|-----------------------------------------------------------|
g|-----------------------------------------------------------|
c|-2222-2222-x4-5555-5555--0000-0000--2222-2222--2222-222<2>-|

f|-Tremolo-Picking--  -Tremolo picking
c|------------------x3-----------|
g|-2-------2---1----  ---5-4-1---|
c|---5-1-2---5------  -5-------4-|

f|----------------------------------|
c|----------------------------------|
g|----------------------------------|
c|-5555-5555-8888-4444-111111111111-|

f|--------------------------------------------------|
c|--------------------------------------------------|
g|--------------6-5-------6-5-------6-5-------------|
c|-000000-0-0-0-----0-0-0-----0-0-0-----0-0-0-0-0-0-|


f|------------------|
c|------------------|x10
g|------------------|
c|-0223002-0223002~-|

chorus

f|-----------------------------------------------|
c|---5~~--~4~------------------------------------|x4
g|---~5~---~4~-----------------------------------|
c|-5~--~-4~~~~-0223002-0223002---0223002-0223002-|

chorus outro
f|--------------------|
c|--------------------|x4
g|--------------------|
c|-222222255555551111-|


f|-Tremolo-Picking---|
c|-------------------|x3
g|-2-------2---1-----|
c|---5-1-2---5-------|

f|-Tremolo-Picking------------------------|
c|----------------------------------------|
g|-2-------2---1111111111111111111111111~-|
c|---5-1-2---5----------------------------|
            
Submit corrections

comments powered by Disqus
↑ Back to top | Strapping Young Lad Bass for Love?. Lyrics for acoustic guitar and electric guitar. Tablatures and chords are parodies/interpretations of the original songs. You may use it for private study, scholarship, research or language learning purposes only