>
 >
Love?

Love? Guitar Tabs

Strapping Young Lad - Love? chords, tabs, tablatures, lyrics

Guitar lessons | Add/correct | Request | Top 50 tabs Artists:  A B C D E F G H I J K L M N O P Q R S T U V W X Y Z 0-9

Love? Guitar Tabs – Strapping Young Lad

CD, Sheet music, Poster

Do you like Love?? Share with your friends now
Bass TabsTabs
Strapping Young Lad: Love?
off the album Alien

Tuning: open c major (C-G-C-G-C-E)

stuff:
~let ring
/slide up
\slide down
^bend up to(note)
 pinch harmonic


Suck It!


main riff
e---------------------|
c---------------------|
g---------------------|
c---------------------|x16
g-------2-------------|
c-0223002-0223001^(2)-|

bridge
e-----------------------------------------------------|
c----------4~----------4~\3~---/7-7\5-5\3~-/7-7\5-5\3-|
g----------4~----------4~\3~---/7-7\5-5\3~-/7-7\5-5\3-|
c----------4~----------4~\3~---/7-7\5-5\3~-/7-7\5-5\3-|
g-----------------------------------------------------|
c-4444-44-4---4444-44-4-------------------------------|

verse intro
e--------------------|
c--------------------|
g--------------------|
c--------------------|x3
g--------------------|
c-222222255555551111-

e---------------------|
c---------------------|
g---------------------|
c---------------------|
g---------------1-1-1-|
c-222222255555551-1-1-|

verse riff- same as verse intro,
but with heavier palm muting x2,
second time he hits a pinch harmonic
and bends instead of (c-1-1-1-)


bridge
e----------------------------------------------------------------|
c----------------------------------------------------------------|
g----------------------------------------------------------------|
c----------------------------------------------------------------|
g------------------------------------------------------------1-1-|
c-3333333^(4)2-3333333^(4)2-222222255555551111-222222255555551-1-|

verse riff, same as before, with bridge.

pre-chorus
e--------------------------|
c--------------------------|
g--------------------------|
c-0------------------------|
g-000000000000000000000000-
c-000000000000000000000000-

e-----------------|
c-----------------|
g-----------------|
c-----------------|x4
g-------2-------2-|
c-0223002-0223002-|

chorus

e-----------------------------------------------|
c-----------------------------------------------|
g---5~~---4~~-----------------------------------|
c-5~5~~-4~4~~-----------------------------------|x4
g-5~~5~-4~~4~-------2-------2---------2-------2-|
c-5~~~~-4~~~~-0223002-0223002---0223002-0223002-|

chorus outro

e------------------|
c------------------|
g------------------|
c---------------0~-|x4
g---------------0~-|
c-222222255555550~-

bridge
e-----------  ----------------------------------------------|
c-----------  ----------------------------------------------|
g-----------  ----------------------------------------------|
c-----------  ----------------------------------------------|
g-2222-2222-x4-5555-5555--0000-0000--2222-2222--2222-222----|
c-2222-2222-  -5555-5555--0000-0000--2222-2222--2222-222<2>-|

e------------------  -----------|
c------------------  -----------|
g-Tremolo-Picking--  -Tremolo picking
c------------------x3-----------|
g-2-------2---1----  ---5-4-1---|
c---5-1-2---5------  -5-------4-|

e----------------------------------|
c----------------------------------|
g----------------------------------|
c----5----5----8----4--------------|
g----5----5----8----4-111111111111-|
c-5555-5555-8888-4444-111111111111-|

e--------------------------------------------------|
c--------------------------------------------------|
g--------------6-5-------6-5-------6-5-------------|
c--------------------------------------------------|
g--------0-0-0-6-5-0-0-0-6-5-0-0-0-6-5-0-0-0-0-0-0-|
c-000000-0-0-0-----0-0-0-----0-0-0-----0-0-0-0-0-0-|


e------------------|
c------------------|
g------------------|
c------------------|x10
g-------2----------|
c-0223002-0223002~-|

chorus

e-----------------------------------------------|
c-----------------------------------------------|
g---5~~---4~~-----------------------------------|
c-5~5~~-4~4~~-----------------------------------|x4
g-5~~5~-4~~4~-------2-------2---------2-------2-|
c-5~~~~-4~~~~-0223002-0223002---0223002-0223002-|

chorus outro
e--------------------|
c--------------------|
g--------------------|
c--------------------|x4
g--------------------|
c-222222255555551111-


e-----------------|
c-----------------|
g-Tremolo-Picking-
c-------------------|x3
g-2-------2---1-----|
c---5-1-2---5-------|

e----------------------------------------|
c----------------------------------------|
g-Tremolo-Picking---------------------1~-|
c----------------------------------------|
g-2-------2---1111111111111111111111111~-|
c---5-1-2---5----------------------------|


Hevy Devy!





Comments


Popular Strapping Young Lad tabs & chords
Devour 1 Bass Tabs
Critic Tabs
Detox Tabs
Imperial Tabs
Japan Tabs
Polyphony 1 Tabs
Relentless Tabs
Relentless 1 Tabs
Satans Ice Cream Truck Intro Tabs
Underneath The Waves Tabs


Song lyrics



↑ Back to top | Tablatures and chords are parodies/interpretations of the original songs. You may use it for private study, scholarship, research or language learning purposes only
© 2014 AZChords.com Contact us | Privacy policy | DMCA | Add/correct tabs | Request tabs | Top 50 tabs