» » »

Stornoway, I Saw You Blink Chords (ver.1)

Artists:  A B C D E F G H I J K L M N O P Q R S T U V W X Y Z # 

I Saw You Blink Chords (ver.1)

Stornoway Tabs
Rating:
2/5 (4 votes)
I Saw You Blink lessons Tabs too difficult? Try these video lessons and learn fast
                stornoway - i saw you blink
standard tuning


the strumming pattern is easy enough to figure out.

i missed the train...
   E
----------------------|
---9----7----7--------|
---9----9----9--------|
---9----11---9--------|
---7----7----11-------|
----------------------|


      longgggggggggg hummmmmmmmmmmm    i missed the train..
Amaj7 (F# on and off on D string) E (C# on 
off on A string)


when i was still day dreaming
 A         F#min     A
-5-----------2-------5-----|
-5-----------2-------5-----|
-6-----6-----2-------6-----|
-7-----7-----4-------7-----|
-7-----7-----4-------7-----|
-5-----4-----2-------5-----|


E (C# on and off the a string)

chorus

------------------------|
---9--12----------------|
---9--9-----------------|
---11-11-----9--9-------|x2
---9--9------9--11------|
-------------0--0-------|

--4---4---7---7---|
--3---3---7---7---|
--5---5---8---8---|
--5---4---7---7---|
--4---4---9---11--|
----------7---7---|

verse

chorus

bridge:

      c#min           A               E
and i climbed up that hill when i got home, when i got home... x3

on third time play F#min

Amaj7 (build up)E

chorus

ends on E

hope this helped
            

comments powered by Disqus
↑ Back to top | Stornoway Chords for I Saw You Blink. Lyrics for acoustic guitar and electric guitar. Tablatures and chords are parodies/interpretations of the original songs. You may use it for private study, scholarship, research or language learning purposes only