» » »

Storm, Utferd Tabs (ver.1)

Artists:  A B C D E F G H I J K L M N O P Q R S T U V W X Y Z # 

Utferd Tabs (ver.1)

Storm Tabs
 Rating:
4/5 (4 votes)
Utferd lessons Tabs too difficult? Try these video lessons and learn fast
1
                STORM
"Utferd"
Nordavind - 1995

Tune down 1/2 step

            A           E              A           E
D#||--------------------------|--------------------------|
A#||------1-3---3-3h1-1-1-----|------1-3---3-3h1-1-1-----|
F#||--2-3-----3-----------2---|--2-3-----3-----------2---|
C#||--------------0-----3---3-|--------------0-----3---3-|
G#||--------1-----------------|--------1-----------------|
D#||--------------------------|--------------------------|

            F#m   C#
D#||------------------|------------------|
A#||------------------|------------------|
F#||--2---2-3-0-------|--2---2-3-0-------|
C#||----3-------2h3-0-|----3-------2h3-0-|
G#||------------0-----|------------0-----|
D#||--------3---------|--------3---------|
            
Submit corrections

comments powered by Disqus
↑ Back to top | Storm Tabs for Utferd. Lyrics for acoustic guitar and electric guitar. 1 Tablatures and chords are parodies/interpretations of the original songs. You may use it for private study, scholarship, research or language learning purposes only