» » »

Stone Sour, Bertha Tabs (ver.1)

Artists:  A B C D E F G H I J K L M N O P Q R S T U V W X Y Z # 

Bertha Tabs (ver.1)

Stone Sour Tabs
Rating:
0/5 (0 votes)
Bertha lessons Tabs too difficult? Try these video lessons and learn fast
                Stone Sour
Demo 1994

---------------------------------------------------------------------------
Tunning: B E A D F# b

Intro
  This part with "Wah Wah"
b |---------------------|
F#|---------------------|
D |---------------------|
A |---------------------|
E |-10~---10/6~---6/10~-|
B |---------------------|

b |-------------------------------|
F#|-------------------------------|
D |-------------------------------|
A |-2-0-0-3-0-0-0-0---------------|
E |-----------------5-5-5-5-4-5-5-|
B |-------------------------------|


   Verse:

b |-------------------------------------------|
F#|-------------------------------------------|
D |------------------------------------10-8-7-|
A |---10--10-10---10--5-7---10--10-10--10-8-7-|
E |---10--10-10---10--5-7---10--10-10--8--6-5-|
B |-8-8---8--8--8-8---5-7-8-8---8--8----------|


   Chorus:

b |--------------------------------------------|
F#|--------------------------------------------|
D |--------------------------------------------|
A |-7-------------9---------------9--9-9---9-9-|
E |-7-------------9---------------9--9-9---9-9-|
B |-5-x-x-x-x-x-x-7-x-x-x-x-x-x-7-7--7-7-7-7-7-|

b |--------------------------------|
F#|--------------------------------|
D |--------------------------------|
A |-5-------------5-5-5--5--5--5-5-|
E |-5-------------5-5-5--5--5--5-5-|
B |-7-x-x-x-x-x-x-3-3-3--3--3--3-3-|


   Bridge (with wah wah):

b |---------------------|
F#|---------------------|
D |---------------------|
A |---------------------|
E |-10~---10/6~---6/10~-|
B |---------------------|


*SOLO: I didn't tab the solo 'cuz I don't have wah wah and I can't learn it.


   Post SOLO:
     (I get what I want...)
b |------------------------------------|
F#|------------------------------------|
D |------------------------------------|
A |-5-5-7-7-7-9-9--9-9---7-7-9-9-7-5-5-|
E |-5-5-7-7-7-9-9--9-9---7-7-9-9-7-5-5-|
B |-3-3-5-5-5-7-7--7-7---5-5-7-7-5-3-3-|


   Chorus:

b |--------------------------------------------|
F#|--------------------------------------------|
D |--------------------------------------------|
A |-7-------------9---------------9--9-9---9-9-|
E |-7-------------9---------------9--9-9---9-9-|
B |-5-x-x-x-x-x-x-7-x-x-x-x-x-x-7-7--7-7-7-7-7-|

b |--------------------------------|
F#|--------------------------------|
D |--------------------------------|
A |-5-------------5-5-5--5--5--5-5-|
E |-5-------------5-5-5--5--5--5-5-|
B |-7-x-x-x-x-x-x-3-3-3--3--3--3-3-|


   Post Chorus (only in this part):
        "It's Me..."
b |--------------------|
F#|--------------------|
D |--------------------|
A |-5--7---5--7---5--7-|
E |-5--7---5--7---5--7-|
B |-3--5---3--5---3--5-|


   Ending:

b |-----|
F#|-----|
D |-----|
A |-7/5-| } X4
E |-7/5-|
B |-5/3-|
            

comments powered by Disqus
↑ Back to top | Stone Sour Tabs for Bertha. Lyrics for acoustic guitar and electric guitar. Tablatures and chords are parodies/interpretations of the original songs. You may use it for private study, scholarship, research or language learning purposes only