» » »

Steven Curtis Chapman, Dive Tabs (ver.1)

Artists:  A B C D E F G H I J K L M N O P Q R S T U V W X Y Z # 

Dive Tabs (ver.1)

Steven Curtis Chapman Tabs
 Rating:
4.2/5 (5 votes)
Dive lessons Tabs too difficult? Try these video lessons and learn fast
1
                =============================                   =========================
Dive---Steven Curtis Chapman--------------------Transfered by Asa Gaston
=============================                   =========================

Chords (in no particular order):

Eb--0-----------------------0-------0-------0-------0-------0----------|
Bb--0-----------------------0-------0-------0-------0-------0----------|
Gb--9-------5-------7-------8-------6-------6-------4-------1-------4--|
Db--9-------5-------7-------9-------6-------7-------5-------2-------4--|
Ab--7-------3-------5-------9-------4-------7-------5-------2-------2--|
Eb--------------------------x---------------5-------3-------0----------|
  Ebii	B*	  Db*     Bb	C	  Ab	    Gb	Eb	 Bb*
                                         (see note)

* = no 3rd

NOTE: play the Ab note (index finger, 5th fret, low Eb string) only during
the main chord riff.  During the chorus, mute that string as on the Bb chord.
And, if you don't want to mute it, its obviously not that big a deal.  Just
have fun.


Intro:
There is no acoustic in the intro, but if you want, you can play Ebii.

Main Chord-Riff:
Ab	Gb	Eb
Ab	Gb	B*

Verse:

B*	Db*	B*
Db*	B*
Db*	Ebii
Ab      Gb      B*

B*	Db*	B*
Db*	B*
Db*
B*	Bb*     Ebii

Chorus:

Ebii	Bb    C	   Ab	  Bb	 Ebii
Bb      C     Ab   Bb	  Ebii
Bb	C     Ab   Bb	  B*
Db*		    Ebii

main chord riff from above

Verse 2, same chords as verse 1

After chorus, Acousitc solo:
(lots of muting, lots of attack, lots of sneaky fills)

	v v   left hand muting               v v  v ^  v
Eb----x-x------etc. here-------------------x-x--0-0--0---|
Bb----x-x----------------------------------x-x--0-0--0---|
Gb----9-9----------------------------------9-9--8-8--6---|
Db----9-9----------------------------------9-9--9-9--7---|
Ab----7-7------------------------7h9p7-----7-7--9-9--7---|
Eb----x-x--------------------7h9-------h9--x-x--7-7--5---|

Fills and rhythms above are approximate.  Play through 4 times.

Follow last measure with main chord riff (2 times through, watch the timing).

Chorus until the end.
            
Submit corrections

comments powered by Disqus
↑ Back to top | Steven Curtis Chapman Tabs for Dive. Lyrics for acoustic guitar and electric guitar. 1 Tablatures and chords are parodies/interpretations of the original songs. You may use it for private study, scholarship, research or language learning purposes only