» » »

Heaven Is The Face Tabs (ver.1)

Artists:  A B C D E F G H I J K L M N O P Q R S T U V W X Y Z # 

Heaven Is The Face Tabs (ver.1)

Steven Curtis Chapman
Rating:
5/5 (3 votes)

Hard to play? Try these video lessons and learn fast.
                ----------------------------------------------------------------------------
----------------------------------------------------------------------------


Tuning: DADGAD; Capo 1

Intro:
D|-------------------------------------------------------------|
A|-------------------------------------------------------------|
G|-2-2-2-2-2-2-2-2-0-0-0-0-0--2-2-2-2-2-2-2-2-0-0-0-0----------|
D|-0-0-0-2-2-0-0-0-2/5-4-4-4--0-0-0-2-2-0-0-0-2/5-5-5----------|
A|-0-0-0-0-0-0-0-0-0-0-0-0-0--0-0-0-0-0-0-0-0-0-0-0-0----------|
D|-0-0-0-0-0-0-0-0-0-0-0-0-0--0-0-0-0-0-0-0-0-0-0-0-0----------|


Verse:
D|------------------------------------------------------------------|
A|------------------------------------------------------------------|
G|-2-2-2-2-2-2-2-2-0-0-0-0-0--2-2-2-2-2-2-2-2-0-0-0-0-0-0-----------|
D|-0-0-0-2-2-0-0-0-2/5-4-4-4--0-0-0-2-2-0-0-0-2/5-5-5-5-5-----------|
A|-0-0-0-0-0-0-0-0-0-0-0-0-0--0-0-0-0-0-0-0-0-0-0-0-0-0-0-----------|
D|-0-0-0-0-0-0-0-0-0-0-0-0-0--0-0-0-0-0-0-0-0-0-0-0-0-0-0-----------|
  Heaven is the face...          that disappear when she smiles...
  Heaven is the face...          come play with me for a while...

D|------------------------------------------------------|
A|------------------------------------------------------|
G|-0-0-0-0-0-0-0-0-0-0-0-0-0-0--------------------------|
D|-5-5-5-5-5-0-0-5-5-5-0-5-0-0--------------------------|
A|-0-0-0-0-0-0-0-0-0-0-0-0-0-0--------------------------|
D|-5-5-5-5-5-5-5-5-5-5-5-5-5-5--------------------------|


Chorus:
D|--0-----------------4---------------------------------|
A|--0-----------------0---------------------------------|
G|--2-----------------0---------------------------------|
D|--2-----------------0---------------------------------|
A|--0-----------------0---------------------------------|
D|--0-----------------5---------------------------------|
    God, I know, it's all of this and so much more
But God, You know, that this is what I'm aching for

D|-0----------------0--------------0----------4-----------0-----------|
A|-0----------------0--------------0----------0-----------0-----------|
G|-2----------------2--------------2----------0-----------0-----------|
D|-2----------------0--------------0----------0-----------0-----------|
A|-0----------------0--------------0----------0-----------0-----------|
D|-0----------------2--------------4----------5-----------5-----------|
   God, you know, I just can’t see beyond the door.        So right now..


Verse 2 (same as Verse 1)

Chorus

Bridge:
D|---0-----------------------------------------0-------------|
A|---0-----------------------------------------0-------------|
G|---2-----------------------------------------2-------------|
D|---0-----------------------------------------0-------------|
A|---0-----------------------------------------0-------------|
D|---2-----------------------------------------4-------------|
  In my mind's eye I can see a place Where your glory fills every empty space

D|--------0---------------------------------0------------------0-------|
A|--------0---------------------------------0------------------0-------|
G|--------4---------------------------------7------------------6-------|
D|--------0---------------------------------0------------------0-------|
A|--------0---------------------------------0------------------0-------|
D|--------5---------------------------------9------------------7-------|
  All the cancer is gone...     And there's no one left in the orphan's bed

D|----0------------------------0-------------|
A|----0------------------------0-------------|
G|----2------------------------2-------------|
D|----0------------------------0-------------|
A|----0------------------------0-------------|
D|----2------------------------4-------------|
Every lonely heart finds their one true love, And there's

D|----0------------------------0-------------|
A|----0------------------------0-------------|
G|----4------------------------6-------------|
D|----0------------------------0-------------|
A|----0------------------------0-------------|
D|----5------------------------7-------------|
      No more goodbye,     And no more not enough,

D|----0----------0----0-------------0------------|
A|----0----------0----0-------------0------------|
G|----4----------2----2-------------2------------|
D|----0----------0----0-------------2------------|
A|----0----------0----0-------------0------------|
D|----5----------4----2-------------0------------|
  And there’s no more enemy               (no more).

D|--------------------------------------------------------------|
A|--------------------------------------------------------------|
G|--------------------------------------------------------------|
D|-2-4-4-2-4-2-2-2-4/5-4-4-4-4--2-2-4-4-2-4-2-2-2-4/5-5---------|
A|-0-0-0-0-0-0-0-0-0-0-0-0-0-0--0-0-0-0-0-0-0-0-0-0-0-0---------|
D|-0-0-0-0-0-0-0-0-0-0-0-0-0-0--0-0-0-0-0-0-0-0-0-0-0-0---------|


Verse (same as others)

Chorus (same)

The outro is also very close to the intro/verse rift so i guess thats it!
            
Hard to play? Try these video lessons and learn fast. | Correct




comments powered by Disqus
↑ Back to top | Tablatures and chords are parodies/interpretations of the original songs. You may use it for private study, scholarship, research or language learning purposes only