» » »

Happy Day Tabs (ver.1)

Artists:  A B C D E F G H I J K L M N O P Q R S T U V W X Y Z # 

Happy Day Tabs (ver.1)

Steve Fee
Rating:
5/5 (3 votes)

Hard to play? Try these video lessons and learn fast.
                I noticed there were no tabs for this song so I just had to throw this in.
Fee plays it in Db but my band usually plays it in C so forgive me if I make
a typo with the notes. If I do, just fiddle with it till you get the right
key but this should be right. I'm not gonna tell you exactly when to play
what but if you listen to the song you'll figure it out. The First Part is
for the Lead Electric Guitar the other half is for another Electric Guitar to
power chord their way through the song.

Key Db (Original)
+Electric 1(Lead)+
*Intro:
e|--------------------------------------------------------------------------|
B|--99999999-77777777-66666666-77777777--------(repeat until verse 1)-------|
G|--66666666-66666666-55555555-66666666-------------------------------------|
D|--------------------------------------------------------------------------|
A|--------------------------------------------------------------------------|
E|--------------------------------------------------------------------------|

*Verse: (comes in 2nd half of the verse. listen to the song & you'll hear it)
e|--------------------------------------------------------------------------|
B|--------------------------------------------------------------------------|
G|-11-11-10-10-6~~-11-11-10-10/11~~-15-11-10~~-8-10/11~~--------------------|
D|-11-11-10-10-6~~-11-11-10-10/11~~-15-11-10~~-8-10/11~~--------------------|
A|-9--9--8--8--4~~-9--9--8--8-/9~~--13-9--8~~--6-8-/9~~~--------------------|
E|--------------------------------------------------------------------------|

He's ALIVE!
e|--------------------------------------------------------------------------|
B|--------------------------------------------------------------------------|
G|-13-13-13-11-11-11-10-10-10-11-11-11-13-13-13-----------------------------|
D|-13-13-13-11-11-11-10-10-10-11-11-11-13-13-13-----------------------------|
A|-11-11-11-9--9--9--8--8--8--9--9--9--11-11-11-----------------------------|
E|--------------------------------------------------------------------------|

Chorus: (Do it twice each chorus)
   Db      Gb      Bb      Ab
e|--------------------------------------------------------------------------|
B|-14(8x)--14(8x)--14(8x)--14(8x)-------------------------------------------|
G|-13------11------10------11-----------------------------------------------|
D|--------------------------------------------------------------------------|
A|--------------------------------------------------------------------------|
E|--------------------------------------------------------------------------|

I'll never be the same! (repeat after "Forever I am changed")
   Db              Gb                  Bb                  Ab
e|-9-9-9-9---------11-11-11-11---------13-13-13-13---------14-13-11-9-------|
B|---------9-9-9-9-------------9-9-9-9-------------9-9-9-9---9--9--9-9------|
G|--------------------------------------------------------------------------|
D|--------------------------------------------------------------------------|
A|--------------------------------------------------------------------------|
E|--------------------------------------------------------------------------|

Bridge:(do power chords until after "you have saved me")(the counting is really weird 
but if you listen to it you shouldn't have a problem)
e|-9~~--11~~--8~~--6~~--9~~--16~~-------------------------------------------|
B|-9~~--11~~--8~~--6~~--9~~--16~~-------------------------------------------|
G|--------------------------------------------------------------------------|
D|--------------------------------------------------------------------------|
A|--------------------------------------------------------------------------|
E|--------------------------------------------------------------------------|

Ending: (The last "I'll never be the same)
e|-9~~--13-----11-----9-----------------------------------------------------|
B|-9~~--13-----11-----9-----------------------------------------------------|
G|--------------------------------------------------------------------------|
D|--------------------------------------------------------------------------|
A|--------------------------------------------------------------------------|
E|--------------------------------------------------------------------------|


+Electric 2+

Intro:(2x)(the lick will place twice then other instruments come in)
Db   Gb   Bb   Ab
Verse 1:
Db
The greatest day in history
Gb
Death is beaten you have rescued me
Bb                        Gb
   Sing it out Jesus is alive
Db
The empty cross the empty grave
Gb
Life eternal You have won the day
Bb                         Gb        Ab
   Shout it out Jesus is alive He's alive

Chorus:
    Db       Gb        Bb
And oh Happy Day Happy Day
     Ab
You washed my sin away
Db       Gb        Bb
Oh Happy Day Happy Day
      Ab               Db   Gb   Bb
I'll never be the same
    Ab               Db   Gb   Bb   Ab
Forever I am changed

Verse 2:
Db
When I stand in that place
Gb
Free at last meeting face to face
Bb                          Gb
   I am yours Jesus you are mine
Db
Endless joy perfect peace
Gb
Earthly pain finally will cease
Bb                     Gb         Ab
   Celebrate Jesus is alive He's alive

Bridge:
Bb                  F
Oh what a glorious day
                Gb       Db
What a glorious way that you have saved me
    Bb                  F
And oh what a glorious day
                 Gb   Db
What a glorious name yeah

Ending:
          Gb              Bb
What a glorious glorious day
      Ab                Db
I'll never be the same

Song Flow:
Intro(4x)
Verse 1
Chorus
Verse 2
Chorus
Bridge
Chorus(2x)
Ending

That's it! If you have any questions or if the tab just doesn't seem right
just let me know and I'll see if I messed up a fret or 2. God Bless You!

"Therefore be imitators of God, as beloved children. And walk in love, as
Christ loved us and gave himself up for us, a fragrant offering and sacrifice
to God." - Ephesians 5:1-2
            
Hard to play? Try these video lessons and learn fast. | Correct




comments powered by Disqus
↑ Back to top | Tablatures and chords are parodies/interpretations of the original songs. You may use it for private study, scholarship, research or language learning purposes only