>
 >
Life Is Good

Life Is Good Guitar Tabs

Stellar Kart - Life Is Good chords, tabs, tablatures, lyrics

Guitar lessons | Add/correct | Request | Top 50 tabs Artists:  A B C D E F G H I J K L M N O P Q R S T U V W X Y Z 0-9

Life Is Good Guitar Tabs – Stellar Kart

CD, Sheet music, Poster

Do you like Life Is Good? Share with your friends now
ChordsChords v2TabsTabs v2Tabs v3Ukulele
This song is very easy to play. I play it at my church, and this is my version of it. 
are only 2 parts that you play through the whole song. It sounds just like the cd. Have fun!

Intro:

  P.M.-----------   P.M.-----------   P.M.-----------   P.M.----------------|
E---------------------------------------------------------------------------|
B---------------------------------------------------------------------------|
G---------------------------------------------------------------------------|
D-----------------6-----------------6-----------------6-----------------6---|
A-444444444444444-4-444444444444444-4-444444444444444-4-444444444444444-4---|
E---------------------------------------------------------------------------|

E----------------------------------------------------------------------------|
B----------------------------------------------------------------------------|
G----------------------------------------------------------------------------|
D-6-6-6------------------------6-6-6------------------------6-6-6------------|
A-4-4-4-6-6-6--3-3-3--4-4-4----4-4-4-6-6-6--3-3-3--4-4-4----4-4-4-3-3-3------|
E-------4-4-4--1-1-1--2-2-2----------4-4-4--1-1-1--2-2-2----------1-1-1------|

E-----------------------------------------------------------|
B-----------------------------------------------------------|
G-----------------------------------------------------------|
D-6-6-6------------------------6-6-6------------------------|
A-4-4-4-6-6-6--3-3-3--4-4-4----4-4-4-6-6-6--3-3-3-----------|
E-------4-4-4--1-1-1--2-2-2----------4-4-4--1-1-1-----------|

Verse 1:

E----------------------------------------------------------------------|
B----------------------------------------------------------------------|
G----------------------------------------------------------------------|
D--6------6------6------6----6-6-6------------------------6-6-6--------|
A--4------4------4------4----4-4-4-6-6-6--3-3-3--4-4-4----4-4-4-6-6-6--|
E----------------------------------4-4-4--1-1-1--2-2-2----------4-4-4--|

E---------------------------------------------|
B---------------------------------------------|
G---------------------------------------------|
D------------------6------6------6------6-----|
A--3-3-3--4-4-4----4------4------4------4-----|
E--1-1-1--2-2-2-------------------------------|

Chorus:

E-------------------------------|
B-------------------------------|
G-------------------------------|   (Repeat x8)
D--6-6-6------------------------|
A--4-4-4-6-6-6--3-3-3--4-4-4----|
E--------4-4-4--1-1-1--2-2-2----|

Verse 2:
E----------------------------------------------------------------------|
B----------------------------------------------------------------------|
G----------------------------------------------------------------------|
D--6------6------6------6----6-6-6------------------------6-6-6--------|
A--4------4------4------4----4-4-4-6-6-6--3-3-3--4-4-4----4-4-4-6-6-6--|
E----------------------------------4-4-4--1-1-1--2-2-2----------4-4-4--|

E---------------------------------------------|
B---------------------------------------------|
G---------------------------------------------|
D------------------6------6------6------6-----|
A--3-3-3--4-4-4----4------4------4------4-----|
E--1-1-1--2-2-2-------------------------------|


Chorus:

E-------------------------------|
B-------------------------------|
G-------------------------------|   (Repeat x8)
D--6-6-6------------------------|
A--4-4-4-6-6-6--3-3-3--4-4-4----|
E--------4-4-4--1-1-1--2-2-2----|

(Repeat verse 2 lyrics but a different guitar part)

P.M.-------------------------------|
E----------------------------------|
B----------------------------------|
G----------------------------------|
D----------------------------------|
A--44444444444444444444444444444---|
E----------------------------------|

Chorus:

E-------------------------------|
B-------------------------------|
G-------------------------------|   (Repeat x8)
D--6-6-6------------------------|
A--4-4-4-6-6-6--3-3-3--4-4-4----|
E--------4-4-4--1-1-1--2-2-2----|

(then after you play it 8 times, on the 9th time, you just hit this power chord.)

E-----------------------|
B-----------------------|
G-----------------------|
D--6--------------------|
A--4--------------------|
E-----------------------|


Well thats the song, hope u have fun with it! If i did anything wrong, please let me know.





Comments


Popular Stellar Kart tabs & chords
Innocent Bass Tabs
Me And Jesus Bass Tabs
Jesus Loves You 2 Chords
Something Holy Chords
Sunshine Chords
Finish Last Tabs
Gone Fishin' Tabs
Shine Like The Stars Tabs
Superstar Tabs
A Love Song Ukulele


Song lyrics



↑ Back to top | Tablatures and chords are parodies/interpretations of the original songs. You may use it for private study, scholarship, research or language learning purposes only
© 2014 AZChords.com Contact us | Privacy policy | DMCA | Add/correct tabs | Request tabs | Top 50 tabs