>
 >
Rikki Don't Lose That Number 1

Rikki Don't Lose That Number 1 Bass Tabs

Steely Dan - Rikki Don't Lose That Number 1 chords, tabs, tablatures, lyrics

Guitar lessons | Add/correct | Request | Top 50 tabs Artists:  A B C D E F G H I J K L M N O P Q R S T U V W X Y Z 0-9

Rikki Don't Lose That Number 1 Bass Tabs – Steely Dan

CD, Sheet music, Poster

Do you like Rikki Don't Lose That Number 1? Share with your friends now
Bass TabsBass Tabs v2ChordsTabs
Rikki Don't Lose That Number
                                   Steely Dan


    Sound Effects     0:24                                                      
G---|-----------------||---------------------|---------------------||-----------
D---|-----------------||*--------9--9--------|--------9--9--------*||-----------
A---|-----------------||*--7--------------7--|--7--------------7--*||--7--------
E---|-----------------||---------------------|---------------------||-----------
                                                                                

                                                                                
G---------------|-----------------------|-----------------|---------------------
D---9--9--------|--------9--9-----------|-----------------|---------------------
A------------7--|--7--------------7-----|--5-----------7--|-----------4--7------
E---------------|-----------------------|-----------------|--5-----5------------
                                                                                

                                                                                
G---------|-----------------|-----------------------|-----------------|---------
D---------|-----------------|-----------------------|-----------------|---------
A------7--|-----------------|--7-----7-----7--------|--5-----------7--|---------
E---------|--0-----------7--|-----------7--------5--|-----------------|--5------
                                                                                

                                                                                
G---------------------|-----------------|--------------------|------------------
D---------------------|-----------------|--------------------|------------------
A---------4--7-----7--|-----------------|--4--------2--------|--5---------------
E------5--------------|--0-----------4--|--------2--------5--|------------------
                                                                                

                                                                                
G------|-------------------------|---------------------|------------------------
D------|-------------------------|---------------------|------------------------
A---7--|----------------7-----7--|---------------------|--7-----7-----7---------
E------|--5-----5---/9-----------|--0-----------(5)/7--|-----------7------------
                                                                                

                                                Piano & Guitar 1:08             
G-----|--------------------|--------------------|--------------|----------------
D-----|--------------------|--------------------|--------------|--------9-------
A---7\|--------------------|--------------------|--------------|--7-------------
E-----|--2-----2--2--------|--5-----5--5--------|--------------|----------------
                                                                                

                                                                                
G------9-----|---------------------9-----|------------------12------12----------
D---9-----9--|--------(7)h9-----9-----9--|---------(10)h12------12------12------
A------------|--7------------------------|--10----------------------------------
E------------|---------------------------|--------------------------------------
                                                                                

                                                                                
G---|----------------------------|-----------------------|----------------------
D---|---------13------12------12\|--7-----7-----7--------|--5-----5-----5-------
A---|--10-----------------10-----|-----------7--------5--|-----------5----------
E---|-------------10-------------|-----------------------|----------------------
                                                                                

                                                                                
G------|--------------------------|--------------------------|------------------
D---7--|--------------------------|--------------------------|------------10----
A------|--5--5-----------5--------|-----5--------5--5--------|--------10--------
E------|--------7--5--------7--5--|--------7--5--------7--5--|--8---------------
                                                                                

                                                                                
G---------------|--------------------------|-----------------------|------------
D---10--10------|------------10------------|--------9--------9-----|------------
A-----------10--|--------10------10--------|--7--------------------|--7---------
E---------------|--8-----------------8--7--|-----------7--7-----7--|------------
                                                                                

                                                                                
G------------------|--------------5-----------|--------------------------|------
D------------------|--------5--5-----5-----5--|--------------7--7--7-----|------
A------------0--2--|--3-----------------3-----|--5--------7-----------7--|------
E---7--0--3--------|--------------------------|-----5--------------------|------
                                                                                

                                                                                
G--------------------------|--------------------|--------------------|----------
D---7\---------------------|--------9--9--------|--------9--9--------|----------
A--------------------5--7--|--7--------------7--|--7--------------7--|--7-------
E-----------------7--------|--------------------|--------------------|----------
                                                                                

                                        1:47                                    
G---------------|-----------------------|---------------------|-----------------
D---9--9--------|--------9--9-----------|---------------------|-----------------
A------------7--|--7--------------7-----|--5-----------(5)h7--|-----------------
E---------------|-----------------------|---------------------|--5-----5--------
                                                                                

                                                                                
G----------------|-----------------|-----------------------|--------------------
D----------------|-----------------|-----------------------|--------------------
A-------7-----7--|-----------------|--7-----7-----7--------|--5-----------------
E---/9-----------|--0-----------7--|-----------7--------5--|--------------------
                                                                                

                                                                                
G----------|-----------------------|-----------------|--6--6-----------4--------
D----------|-----------------------|-----------------|--------6-----------4-----
A---(5)h7--|-----------4--7-----7--|-----------------|-----------4--------------
E----------|--5-----5--------------|--0--------------|--------------------------
                                                                                

                                                                                
G------|-----------------|-------------------------|---------------------|------
D------|-----------------|-------------------------|---------------------|------
A---2--|--5-----------7--|----------------7-----7--|---------------------|------
E------|-----------------|--5-----5---/9-----------|--0-----------(5)/7--|------
                                                                                

                                                                                
G--------------------------|--------------------|-------------------------------
D--------------------------|--------------------|-------------------------------
A---7--7-----7-----7-----7\|--------------------|-------------------------------
E---------------7----------|--2-----2--2--------|--5-----5--5-------------------
                                                                                

    Piano & Guitar 2:18                                                         
G---|--------------|-----------------9-----|-----------------9-----|------------
D---|--------------|--------9-----9-----9--|--------9-----9-----9--|------------
A---|--------------|--7--------------------|--7--------------------|--10--------
E---|--------------|-----------------------|-----------------------|------------
                                                                                

                                                                                
G------------12------12------|----------------------------|---------------------
D---(10)h12------12------12--|-----------------12------12\|--7-----7-----7------
A----------------------------|--10-----10----------10-----|-----------7---------
E----------------------------|-------------10-------------|---------------------
                                                                                

                                                                                
G------7--|-----------------------|--------------------------|------------------
D---------|--5-----5-----5-----7--|--------------------------|------------------
A---------|-----------5-----------|--5--5--------5--5--------|--5--5------------
E---------|-----------------------|--------7--5--------7--5--|--------7--5------
                                                                                

                                                                                
G------------------|--------------------------|-----------5-----------|---------
D------------------|--------5--5--5-----------|--------5-----5--------|---------
A---5--5--5--------|--3-----------------------|--3--------------3--2--|---------
E------------7--5--|--------------------3-----|-----------------------|--0------
                                                                                

                                                                                
G---------------------|--------------9------------------|-----------------------
D---------------------|-------(7)/9-----9-----9\------7\|--------5-----5--------
A---------7-----5--7--|--(7)---------------7-------5----|--3--------3-----3-----
E------7-----7--------|---------------------------------|-----------------------
                                                                                

                                                                                
G------|--------------------------|----------------------|----------------------
D------|--------------7--7--7-----|--7\------------------|--------9--9----------
A------|--5--------7-----------7--|----------------5--7--|--7--------------7----
E------|-----5--------------------|-------------7--------|----------------------
                                                                                

                                                                                
G---|--------------------|--------------------|---------------------------------
D---|--------9--9--------|--------9--9--------|--------9--9-----9---------------
A---|--7--------------7--|--7--------------7--|--7-----------7-----7\-----------
E---|--------------------|--------------------|---------------------------------
                                                                                

    2:57 Guitar Solo                                                            
G---|-----------------------|----------------------|----------------------|-----
D---|--------7--------------|----------7-----7--9--|----------------------|-----
A---|--5-----------------5--|------/7-----7--------|--7--------7--7-------|-----
E---|-----------5--5--7-----|--5-------------------|--------7--------9--7\|-----
                                                                                

                                                                                
G---------------------------|----------7-----------|-----------------------|----
D---------2-----2--2--------|------/7-----7--------|--------7--------------|----
A------2-----2--------4--2--|--5-------------5--7--|-----7--------7-----7--|----
E---0-----------------------|----------------------|--5--------------5-----|----
                                                                                

                                                                                
G------------------------|--------------------------|---------------------------
D---5-----------5--------|--5--5--------5--5--------|--3-----3--3---------------
A---------5--------5-----|--------7--5--------5-----|-----------------x--3------
E------------3-----------|--------------------------|---------------------------
                                                                                

                                                                                
G------|-----------------------------|-----------------------|-----------9------
D---3--|--5-----5--5-----x-----5-----|--3-----3--3-----------|--------9---------
A------|--------------------5-----5--|-----------------3--5--|--7--7------------
E------|-----------------------------|-----------------------|------------------
                                                                                

                                                                                
G---------------|-----------7-----------|--------------------------|--9---------
D---9-----------|--------7-----7--------|-----------7------/11--9--|------------
A---------7-----|--5--------------5--7--|--------7-----7-----------|------------
E------7-----7--|-----------------------|--5-----------------------|------------
                                                                                

                                           3:29                                 
G------9-----------|-----------------------|-----------------|------------------
D---9-----9--------|--7-----6--------------|-----------------|------------------
A------------7-----|--------------9-----7--|-----------------|------------------
E------------------|-----------------------|--5-----5--5-----|--4-----4--4------
                                                                                

                                                                                
G------|-----------------|-----------------|-----------------|------------------
D------|-----------------|-----------------|-----------------|------------------
A------|-----------------|--4-----4--4-----|-----------------|------------------
E------|--5-----5--5-----|-----------------|--2-----2--2-----|--5-----5--5------
                                                                                

       Piano & Guitar 3:44                                                      
G------|--------------|-----------------9-----|-----------------9-----|---------
D------|--------------|--------9-----9-----9--|--------9-----9-----9--|---------
A------|--------------|--7--------------------|--7--------------------|--10-----
E------|--------------|-----------------------|-----------------------|---------
                                                                                

                                                                                
G---------------12------12------|----------------------------|------------------
D------(10)h12------12------12--|-----------------12------12\|--7-----7---------
A-------------------------------|--10-----10----------10-----|-----------7------
E-------------------------------|-------------10-------------|------------------
                                                                                

                                                                                
G-----------|-----------------------|--------------------------|----------------
D---7\------|--5-----5-----5-----7--|--------------------------|----------------
A--------5--|-----------5-----------|--5--5-----------5--------|-----5----------
E-----------|-----------------------|--------7--5--------7--5--|--------7--5----
                                                                                

                                                                                
G---------------|---------------------------|---------------------------|-------
D---------------|-----------------------10--|--10---------10------------|-------
A------5--------|--------10--10--10---------|---------10------10-----10\|--7----
E---------7--5--|--8------------------------|---------------------8-----|-------
                                                                                

                                                                                
G---------------------9--|--12-----11h12p11--9------------------|----------5----
D---------9--9--9--------|----------------------12--10--9-----9\|------/5-------
A---7--------------------|---------------------------------7----|--3------------
E------------------------|--------------------------------------|---------------
                                                                                

                                                               4:14             
G------------|--------------------------|----------------------||---------------
D---5--------|--------------7--7--7-----|--7\------------------||*--------9-----
A------3-----|--5--------7-----------7--|----------------5--7--||*--7-----------
E------------|-----5--------------------|-------------7--------||---------------
                                                                                

                                                                                
G------------|---------------------||-----------------------|-------------------
D---9--------|--------9--9--------*||--------9--9-----------|-------------------
A---------7--|--7--------------7--*||--7-----------------7--|--(7)--------------
E------------|---------------------||-----------------------|-------------------
                                                                                

                                                                                
G------||-----------------------------------------------------------------------
D------||-----------------------------------------------------------------------
A------||-----------------------------------------------------------------------
E------||-----------------------------------------------------------------------
                                                                                



==                Created with a demo version of BUCKET O' TAB                ==
==                  tablature creation software for Windows                   ==





Comments


Popular Steely Dan tabs & chords
Haitian Divorce Bass Tabs
Deacon Blues Chords
Pearl Of The Quarter Chords
Peg 1 Chords
Reelin' In The Years Chords
Things I Miss The Most Chords
Chained Lightening Tabs
Third World Man Tabs
Sign In Stranger Ukulele
Things I Miss The Most Ukulele


Song lyrics



↑ Back to top | Tablatures and chords are parodies/interpretations of the original songs. You may use it for private study, scholarship, research or language learning purposes only
© 2014 AZChords.com Contact us | Privacy policy | DMCA | Add/correct tabs | Request tabs | Top 50 tabs