» » »

Static - X, The Only Tabs (ver.1)

Artists:  A B C D E F G H I J K L M N O P Q R S T U V W X Y Z # 

The Only Tabs (ver.1)

Static - X Tabs
 Rating:
4/5 (4 votes)
The Only lessons Tabs too difficult? Try these video lessons and learn fast
1
                Static X
"The Only"
Shadow Zone

Sup guys, the new single off the new Static album titled "Shadow Zone" enjoy
listen to the song for all timing and patterns.

Dropped C tuning:
CGCFAD

pm = palm mute
^ = hold note
h = hammer on
* = harmonic

INTRO/CHORUS

Guitar 1

D|-----------------------------------------------------------------------------| 
A|-----------------------------------------------------------------------------| 
F|-------------------------------------------3--------------------5------------| 
C|---0-------------------3-------------------3--------------------5------------| 
G|---0-------------------3-------------------1--------------------3----------4-| 
C|---0-------------------3-----------------------------------------------------| 
     ^                   ^                   ^                    ^
     
D|-----------------------------------------------------------------------------| 
A|-----------------------------------------------------------------------------| 
F|-------------------------------------------3---------------------------------| 
C|---0-------------------3-------------------3--------------------1----------3-| 
G|---0-------------------3-------------------1--------------------1----------3-| 
C|---0-------------------3----------------------------------------1----------3-| 
     ^                   ^                   ^                    ^
     
Guitar 2 ( comes in at 0:11)
     figure out the strokes
     
D|-----------------------------------------------------------------------------| 
A|-----------------------------------------------------------------------------| 
F|---14--------12-------10------8---10-----------------------------------------| 
C|----x---------x--------x------x---x------------------------------------------| 
G|---12--------10--------8------6---8------------------------------------------| 
C|-----------------------------------------------------------------------------| 
                
                
                
 VERSE:             
                
D|-----10--------12-----------13----------12-----------------------------------| 
A|---------10----------10----------10-----------10-----------------------------| 
F|-----------------------------------------------------------------------------| 
C|-----------------------------------------------------------------------------| 
G|-----------------------------------------------------------------------------| 
C|-----------------------------------------------------------------------------| 
                                   
                                   
                                   
 BRIDGE THING OVER CHORUS CHORDS (1: 35)
 
D|-----------------------------------------------------------------------------| 
A|-----------------------------------------------------------------------------| 
F|---7-----10--9---5------10--9---3------3---5---7-----5---7--9----------------| 
C|---x-----x---x---x------x---x---x------x---x---x-----x---x--x----------------| 
G|---5-----8---7---3------8---7---1------1---3---5-----3---5--7----------------| 
C|-----------------------------------------------------------------------------| 
 				  ^
 
 INTERLUDE (1: 53)
 
 Repeat several times
D|-----------------------------------------------------------------------------| 
A|-----------------------------------------------------------------------------| 
F|-----------------------------------------------------------------------------| 
C|----3h2-2-2----3h2-2-2-------------------------------------------------------| 
G|----3h2-2-2----3h2-2-2-------------------------------------------------------| 
C|----3h2-2-2----3h2-2-2--3----------------------------------------------------| 
     			  *
             
OUTRO 2x  (2: 46)

D|-----------------------------------------------------------------------------| 
A|-----------------------------------------------------------------------------| 
F|-----------------------------------------------------------------------------| 
C|---0----0-0---0-0------------------------------------------------------------| 
G|---0----0-0---0-0------------------------------------------------------------| 
C|---0----0-0---0-0------------------------------------------------------------|
            
Submit corrections

comments powered by Disqus
↑ Back to top | Static - X Tabs for The Only. Lyrics for acoustic guitar and electric guitar. 1 Tablatures and chords are parodies/interpretations of the original songs. You may use it for private study, scholarship, research or language learning purposes only